Oops, an error
Loading. Please wait.

I Dont Know What I Can Save You From chords

version 3
version 3

Whole song

Interactive

80,563 views 144 this week
7 commentsread comments
1 2 3 4 5
x 38
add to favorites
×
Save as Personal and add changes to this tab that will be seen only by you. Learn more ›
×
You can save this tab as Personal to edit and correct it or add notes. All changes will be seen only by you. Learn more »
launch autoscroll
font size
0
reset
transpose
0
reset
simplify chords
display chords
guitar tuner
edit
Autoscroll
slow
fast
+/-
esc
set tempo
stop
Strumming
There is no strumming pattern for this song yet. and get +5 IQ
[Intro]

 Guitar1

 Fill in
e|----------0-----------------0----------------------------------------||---|
B|--------1---3-1-0---------1---3-1-0--------0--3-1-0--------0-1-3-----||(0)|
G|-----0---------------0-2---------------0-2----------0-2--2-----------||---|
D|---2---------------2-----------------2-------------------------------||---|
A|-3-------------------------------------------------------------------||---|
E|---------------------------------------------------------------------||---|

Guitar2

Cadd9 - Asus2- Em7 - F


[Verse 1]

Cadd9               Asus2
You called me after midnight
                     Em7                 F
Must have been three years since we last spoke
Cadd9             Asus2
I slowly tried to bring back
                   Em7                      F
The image of your face from the memories so old
Cadd9              Asus2
I tried so hard to follow
                     Em7                   F
But didn't catch the half of what had gone wrong
Cadd9                   Asus2          Em7     F
Said "I don't know what I can save you from"
Cadd9             Asus2          Em7     F    F    G
I don't know what I can save you from


[Instrumental]

 Guitar1

e|----------0-----------------0----------------------------------------||---|
B|--------1---3-1-0---------1---3-1-0--------0--3-1-0--------0-1-3-----||(0)|
G|-----0---------------0-2---------------0-2----------0-2--2-----------||---|
D|---2---------------2-----------------2-------------------------------||---|
A|-3-------------------------------------------------------------------||---|
E|---------------------------------------------------------------------||---|

Guitar2
Cadd9 - Asus2- Em7 - F


[Verse 2] 

Cadd9               Asus2
I asked you to come over
                   Em7                 F
And within half an hour you were at my door
Cadd9            Asus2
I'd never really known you
          Em7                          F
But I realized that the one you were before
Cadd9                Asus2
Had changed into somebody for whom
           Em7                    F    G
I wouldn't mind to put the kettle on
G                       Am7           Fsus4    Em7     G
Still I don't know what I can save you from
G                 Am7           Fsus4 Em7
I don't know what I can save you from


[Instrumental]

 Guitar1
e|----------0-----------------0----------------------------------------||---|
B|--------1---3-1-0---------1---3-1-0--------0--3-1-0--------0-1-3-----||(0)|
G|-----0---------------0-2---------------0-2----------0-2--2-----------||---|
D|---2---------------2-----------------2-------------------------------||---|
A|-3-------------------------------------------------------------------||---|
E|---------------------------------------------------------------------||---|


Guitar2

Cadd9 - Asus2- Em7 - F


[from here on, I'm regarding just one guitar]


[String part]

F (16x)


[Interlude]

Am 
G Dm C G
F Am G (4x)

F

Am                G              F
I don't know what I can save you from

Am G F

Am                G              F
I don't know what I can save you from

Am G F

Am                G              F
I don't know what I can save you from

Am G F

Am                G              F
I don't know what I can save you from

Am G F


[Outro]

F C




Cadd9  - x32030
Asus2  - x02200
Dm     - x00231
Em7    - 020000
F      - 133211
G      - 320022
Am     - 002210
Am7    - x02213
Fsus4  - 1x3213
Em/add7- 022030

you can throw in some variations of the different chords like Em insted of Em7, and C 
of Cadd9, Am instead of Asus2 and Fmaj7 instead of F at the end of the strummingpatterns 
these chords, but I think it sounds nice just to play the song this way too :-)

            
            
Suggest correction
Creating personal tab
Creating personal tab
You can edit any tab online and save it as your Personal.

You can edit, replace or remove any tab part or add personal notes – all changes will be seen only by you.

Personal tabs can be accessed anytime from any device, even offline.
Learn more »
comments
print report bad tab
7 comments total. Showing first comments.
0 reply
jepper 144 Nov 15, 2010 04:21 AM

this is awesome!
Great tab

only i cant get the
"G F F Em7" - part quite right, the first F sounds weird. The Fmaj7 sounds better, but its still not the right chord.

-2 reply
Jonas1987 10 Feb 23, 2011 04:35 AM

Awesome tab and song! Agree with jepper. This is my take on it:

G Am7 Fsus4 Em7 G
Still I don't know what I can save you from
G Am7 Fsus4 Em7
I don't know what I can save you from

You can also use Em/add7 instead of just Em7.

Chords are in the original tab for some reason.. I think the author might have just forgot to use them in this way:)
I like to strum a bit harder and with more passion in this part of the song.

0 reply
Jonas1987 10 Feb 23, 2011 04:36 AM

G Am7 Fsus4 Em7 G
Still I don't know what I can save you from
G Am7 Fsus4 Em7
I don't know what I can save you from

guest
You may want to rate the tab now too:
select rating
Wanna post a correction for this tab? Suggest correction