Oops, an error
Loading. Please wait.

Know How Tab

version 5
version 5

Whole song

Interactive

14,769 views 75 this week
1 commentread comment
1 2 3 4 5
x 12
add to favorites
launch autoscroll
font size
0
reset
how to read this tab
guitar tuner
Autoscroll
slow
fast
+/-
esc
set tempo
stop
Author
Difficulty
Capo
intermediate
6th fret
(Added the bridge and made some improvements for main part.
Both guitars have a capo on the 6th fret)

(First part of the song goes like this)

(Guitar 1)
      x      x      x       x         x       x       x       x  
e|-----------------------------------------------------------------|
B|-------------0------0-------------------------0-------0-------0--|
G|---------0---0------0---0---0-------------6---6-------6---6---0--|
D|---------5---5------5---5---5-------------7---7-------7---7---7--|
A|-------2--------2-----2---------------7-----------7-----7--------|
E|-0-------------------------------5-------------------------------|
 
       x       x       x       x         x     x     x   x
e|-----------------------------------------------------0---0------|
B|---------------0-------0-------------------0---0-----0---0---0--|
G|-----------2---2-------2---2---0-----------0---0-----0---2p0----|
D|-----------2---2-------2---2---2---------4-------4--------------|
A|--------0----------0-----0-----------5---------5----------------|
E|-2--------------------------------------------------------------|

(Guitar 2)
e|--------7-|       e|-------5-----3--3--0-|
B|-----0----|       B|----0-----0----------|
G|--7-------|       G|-7-------------------|
D|----------|(x3)   D|---------------------|
A|----------|       A|---------------------|
E|----------|       E|---------------------|

e|--------2-|       e|-------0-----0--0-|
B|-----0----|       B|----0-----3-------|
G|--6-------|       G|-6----------------| 
D|----------|(x3)   D|------------------|
A|----------|       A|------------------| 
E|----------|       E|------------------|  

e|--------5-|       e|-------3--2--2--0-|
B|-----0----|       B|----0-------------|
G|--6-------|       G|-6----------------|
D|----------|(x3)   D|------------------|
A|----------|       A|------------------|
E|----------|       E|------------------|

e|--------2-|       e|-------0--|
B|-----0----|       B|----0-----|
G|--4-------|       G|-4--------|
D|----------|(x3)   D|----------|
A|----------|       A|----------|
E|----------|       E|----------|

Riding on this know-how
Never been here before
Peculiarly entrusted
Possibly that's all
Is history recorded?
Does someone have a tape?
Surely, I'm no pioneer
Constellations stay the same

(Guitar 2)
e|--------7-|       e|-------5-----3--3--0-|
B|-----0----|       B|----0-----0----------|
G|--7-------|       G|-7-------------------|
D|----------|(x2)   D|---------------------|
A|----------|       A|---------------------|
E|----------|       E|---------------------|

e|--------2-|       e|-------0-----0--0-|
B|-----0----|       B|----0-----3-------|
G|--6-------|       G|-6----------------| 
D|----------|(x2)   D|------------------|
A|----------|       A|------------------| 
E|----------|       E|------------------|  

e|--------5-|       e|-------3--2--2--0-|
B|-----0----|       B|----0-------------|
G|--6-------|       G|-6----------------|
D|----------|(x2)   D|------------------|
A|----------|       A|------------------|
E|----------|       E|------------------|

e|--------2-|       e|-------0--|
B|-----0----|       B|----0-----|
G|--4-------|       G|-4--------|
D|----------|(x2)   D|----------|
A|----------|       A|----------|
E|----------|       E|----------|

Just a little bit of danger
When intriguingly
Our little secret
Trusts that you trust me
'Cause no one will ever know
That this was happening
So tell me why you listen
When nobody's talking

(Guitar 2)
e|--------7-|       e|-------5-----3--3--0-|
B|-----0----|       B|----0-----0----------|
G|--7-------|       G|-7-------------------|
D|----------|(x2)   D|---------------------|
A|----------|       A|---------------------|
E|----------|       E|---------------------|

e|--------2-|       e|-------0-----0--0-|
B|-----0----|       B|----0-----3-------|
G|--6-------|       G|-6----------------| 
D|----------|(x2)   D|------------------|
A|----------|       A|------------------| 
E|----------|       E|------------------|  

e|--------5-|       e|-------3--2--2--0-|
B|-----0----|       B|----0-------------|
G|--6-------|       G|-6----------------|
D|----------|(x2)   D|------------------|
A|----------|       A|------------------|
E|----------|       E|------------------|

e|--------2-|       e|-------0--|
B|-----0----|       B|----0-----|
G|--4-------|       G|-4--------|
D|----------|(x2)   D|----------|
A|----------|       A|----------|
E|----------|       E|----------|

[Bridge]
e|----------------0-----------------------------------0---------------|
B|----------3---------3-------3-------------2-----2-----------2-------|
G|-----0-0----0-0-------0-0---------------------4---------4-------4-0-|
D|------------------------------0---------2---2-----2-------2---2-----|
A|---2----------------------2-----------0-----------------------------|
E|-0------------------------------------------------------------------|

e|---------------0----------------------------------------|
B|---------0---------0---------------------------0--------|
G|-----2-----2-----------2---0---0-----------0-----0---0--|
D|-------2-----2-------2-------2-----------4---4-----4----|
A|---0---------------------0-------------5----------------|
E|-2------------------------------------------------------| (Piano starts)

What is there to know?
All this is what it is
You and me alone
Sheer simplicity
What is there to know?
All this is what it is
You and me alone
Sheer simplicity
What is there to know?
All this is what it is
You and me alone
Sheer simplicity


************************************

| p  Pull-off

************************************
Suggest correction
comments
print report bad tab
1 comment total.
+2 reply
Weepysum47 77 Oct 26, 2013 08:59 AM

this is super good! you should check out my tabs on koc

guest
You may want to rate the tab now too:
select rating
Wanna post a correction for this tab? Suggest correction