Oops, an error
Loading. Please wait.

Sorry Or Please solo tab

3,368 views 1 this week
1 commentread comment
1 2 3 4 5
1 last vote to show rating
add to favorites
×
Save as Personal and add changes to this tab that will be seen only by you. Learn more ›
×
You can save this tab as Personal to edit and correct it or add notes. All changes will be seen only by you. Learn more »
launch autoscroll
font size
0
reset
how to read this tab
guitar tuner
edit
Autoscroll
slow
fast
+/-
esc
set tempo
stop
Author
This is the trumpet solo for the song entitled "Sorry or Please" by Kings of
Convenience.  Obviously, this is translated for guitar.  Have fun, and the chords and
piano part for this song will be done as soon as i get some free time.  One of the
easiest soloss to tab, but a very beautiful piece at the same time.

-------------------------------------------------------------------------------
                    Sorry or Please - Kings of Convenience
-------------------------------------------------------------------------------
Tabbed by: Chris (kilika)
Email: heat_0222@yahoo.com

Tuning: Standard



e|--2---------------------0----2--3--2----0--------------2---7----0----3---2-|
B|------3---2-----2--0----------------------3/5---3--------------------------|
G|---------------------------------------------------------------------------|
D|---------------------------------------------------------------------------|
A|---------------------------------------------------------------------------|
E|---------------------------------------------------------------------------|

e|---2---0-----0-------------------------------------------------------------|
B|-----------------3---------2-----------------------------------------------|
G|---------------------------------------------------------------------------|
D|---------------------------------------------------------------------------|
A|---------------------------------------------------------------------------|
E|---------------------------------------------------------------------------|


| /  slide up
| \  slide down
| h  hammer-on
| p  pull-off
| ~  vibrato
| +  harmonic
| x  Mute note
===============================================================================
Suggest correction
Creating personal tab
Creating personal tab
You can edit any tab online and save it as your Personal.

You can edit, replace or remove any tab part or add personal notes – all changes will be seen only by you.

Personal tabs can be accessed anytime from any device, even offline.
Learn more »
Give kudos to tab author, rate the tab!
1 2 3 4 5
comments
print report bad tab
1 comment total.
+2 reply
harrythemay 31 Jun 10, 2012 06:52 PM

Here's the rest of the tab:

|-------------------------|------------------------|------------------------|--1--1--1------1--1--1---|
|--7--7--7-----11-11-11---|--5--5--5-----7--7--7---|--7--7--7-----5--5--5---|--2--2--2------2--2--2---|
|--6--6--6-----10-10-10---|--4--4--4-----6--6--6---|--6--6--6-----4--4--4---|--3--3--3------3--3--3---|
|--7--7--7-----11-11-11---|--6--6--6-----7--7--7---|--7--7--7-----6--6--6---|-------------------------|
|5----5---0--9----9----5--|4----4---0--5----5---0--|5----5---0--4----4---0--|-------------------------|
|-------------------------|------------------------|------------------------|2----2----2--2----2---5--|


|------------------------|-------------------------|------------------------|--2--2--2---------------|
|------------------------|-------------------------|--5--5--5-----5--5--5---|--3--3--3-----5--5--5---|
|--6--6--6-----6--6--6---|--7--7--7------7--7--7---|--7--7--7-----7--7--7---|--4--4--4-----6--6--6---|
|--7--7--7-----7--7--7---|--5--5--5------5--5--5---|--7--7--7-----7--7--7---|--------------7--7--7---|
|------------------------|-------------------------|------------------------|------------------------|
|7----7---5--7----7---5--|7----7---5--7-----7---5--|7----7---5--7----7---5--|3----3---3--5----5---5--|


|------------------------|--2--2--2------2--2--2---|------------------------|--2--2--2------2--2--2--|
|--7--7--7------7--7--7--|--3--3--3------3--3--3---|--2--2--2-----5--5--5---|--3--3--3------3--3--3--|
|--6--6--6------6--6--6--|--4--4--4------4--4--4---|--2--2--2-----6--6--6---|--4--4--4------4--4--4--|
|--7--7--7------7--7--7--|-------------------------|--2--2--2-----7--7--7---|------------------------|
|5----5---0--5-----5---0-|-------------------------|------------------------|----------------------0-|
|------------------------|3----3---3--3-----3---0--|2----2---2--5----5---5--|3----3---3--3-----3-----|

guest
You may want to rate the tab now too:
select rating
Wanna post a correction for this tab? Suggest correction