Oops, an error
Loading. Please wait.

17 Bass Tab

version 3
version 3

Whole song

Interactive

11,029 views 6 this week
no commentswrite comment
1 2 3 4 5
accurate
x 9
add to favorites
launch autoscroll
font size
0
reset
guitar tuner
Tab Pro tools
  • play this tab
  • loop segment
  • change instrument
  • show fretboard
  • metronome
Autoscroll
slow
fast
+/-
esc
set tempo
stop
Contributor
Intro

G|-----------------------------------------------------------------------------------------|
D|-----------------------------------------------------------------------------------------|
A|333333333333333333333--------------------------------------------------------------------|
E|-----------------------------------------------------------------------------------------|


G|-----------------------------------------------------------------------------------------|
D|-----------------------------------------------------------------------------------------|
A|15-15-15--14-14--12-12-12--10-10---------------------------------------------------------|
E|---------------------------------10-10--14-14--15-15--15-15-15---------------------------|

G|-----------------------------------------------------------------------------------------|
D|-----------------------------------------------------------------------------------------|
A|15-15-15--14-14--12-12-12--10-10---------------------------------------------------------|
E|---------------------------------10-10--14-14—-15\---------------------------------------|

Verse

G|------14/16-14---------------------------------------------------------------------------|
D|---14--------------12-9------------------------------------------------------------------|x3
A|12---------------12-----12---------------------------------------------------------------|
E|--------------10-----------15-15-15-15—14-14-14-14—12-12-12-12-10-10-10-10---------------|

G|------14/16-14---------------------------------------------------------------------------|
D|---14---------------12-9-----------------------------------------------------------------|
A|12---------------12------12-------------------------14-14-12-12-10-10-9------------------|
E|--------------10------------12-12-14-14-15-15-17-17--------------------------------------|

Chorus

G|-----------------------------------------------------------------------------------------|
D|-----------------------------------------------------------------------------------------|
A|15-15-15-15-14-14-14-14-12-12-12-12-10-10-10-10------------------------------------------|x3
E|-----------------------------------------------10-10-10-10-14-14-14-14-15-15-15-15-15-15-|

G|-----------------------------------------------------------------------------------------|
D|-----------------------------------------------------------------------------------------|
A|15-15-15-15-14-14-14-14-12-12-12-12-10-10-10-10------------------------------------------|
E|-----------------------------------------------10-10-10-10-14-14-14-14-15\---------------|

Verse

G|------14/16-14---------------------------------------------------------------------------|
D|---14--------------12-9------------------------------------------------------------------|x3
A|12---------------12-----12---------------------------------------------------------------|
E|--------------10-----------15-15-15-15—14-14-14-14—12-12-12-12-10-10-10-10---------------|

G|------14\9-------14\9--------------------------------------------------------------------|
D|---14------14-14-------------------------------------------------------------------------|
A|12--------------------------------------------14-14-12-12-10-10-9------------------------|
E|----------------------12-12-14-14-15-15-17-17--------------------------------------------|

Chorus

G|-----------------------------------------------------------------------------------------|
D|-----------------------------------------------------------------------------------------|
A|15-15-15-15-14-14-14-14-12-12-12-12-10-10-10-10------------------------------------------|x3
E|-----------------------------------------------10-10-10-10-14-14-14-14-15-15-15-15-15-15-|

G|-----------------------------------------------------------------------------------------|
D|-----------------------------------------------------------------------------------------|
A|15-15-15-15-14-14-14-14-12-12-12-12-10-10-10-10------------------------------------------|
E|-----------------------------------------------10-10-10-10-14-14-14-14-15\---------------|


G|-----------------------------------------------------------------------------------------|
D|-----------------------------------------------------------------------------------------|x3
A|15-15-15-14-14-14-12-12-12-10-10-10------------------------------------------------------|
E|------------------------------------10-10-10-14-14-14-15-15-15-15------------------------|

G|-----------------------------------------------------------------------------------------|
D|-----------------------------------------------------------------------------------------|
A|15-15-15-14-14-14-12-12-12-10-10-10------------------------------------------------------|
E|------------------------------------10-10-10-14\3----------------------------------------|


| /  slide up
| \  slide down
| h  hammer-on
| p  pull-off
| ~  vibrato
| +  harmonic
comments
print report bad tab
I want to post or [tab]
guest
You may want to rate the tab now too:
select rating
Please do not post tabs as comments. Select "correction" instead!