Oops, an error
Loading. Please wait.

17 Bass Tab

version 4
version 4

Whole song

Interactive

2,070 views 3 this week
no commentswrite comment
1 2 3 4 5
please rate
add to favorites
launch autoscroll
font size
0
reset
guitar tuner
Autoscroll
slow
fast
+/-
esc
set tempo
stop
Help us to improve Ultimate-Guitar.com Take our survey!
×
Artist: Kings of Leon
Album: Only by the night
Song: 17

TABBED BY JONATHAN MARRERO:


G|-----------------------------------------------------------------------------------------------|
D|----10-10-10-10-10-10-10-10-10-10-10-10-10-10-10-10--------------------------------------------|
A|-----------------------------------------------------------------------------------------------|
E|-----------------------------------------------------------------------------------------------|


G|-----------------------------------------------------------------------------------------------|
D|----10-10-10-10-9-9-9-9-7-7-7-7-5-5-5-5--------------------------------------------------------|
A|----------------------------------------5-5-5-5-9-9-9-9-10-10-10-10-10-10-10-10----------------|
E|-----------------------------------------------------------------------------------------------|


G|-----------------------------------------------------------------------------------------------|
D|----10-10-10-10-9-9-9-9-7-7-7-7-5-5-5-5--------------------------------------------------------|
A|----------------------------------------5-5-5-5-9-9-9-9-10-------------------------------------|
E|-----------------------------------------------------------------------------------------------|
(Let 10 Ring Until 0:22)

Verse:

x4
G|------------14--14/16-14-----------------------------------------------------------------------|
D|---11/12-14------------------------------------------------------------------------------------|
A|--------------------------------5-2-0----------------------------------------------------------|
E|--------------------------4/5-7----------------------------------------------------------------|

G|-----------------------------------------------------------------------------------------------|
D|-----------------------------------------------------------------------------------------------|
A|---7-7-7-7-7-7-7-7-7-7-7-7-7-7-7-7-7-7---------------------------------------------------------|
E|-----------------------------------------------------------------------------------------------|

Chorus

x4
G|-----------------------------------------------------------------------------------------------|
D|----10-10-10-10-9-9-9-9-7-7-7-7-5-5-5-5--------------------------------------------------------|
A|----------------------------------------5-5-5-5-9-9-9-9-10-10-10-10-10-10-10-10----------------|
E|-----------------------------------------------------------------------------------------------|

The Forth time you play it let the 10 ring until 1:27

Verse:

x4
G|------------14--14/16-14-----------------------------------------------------------------------|
D|---11/12-14------------------------------------------------------------------------------------|
A|--------------------------------5-2-0----------------------------------------------------------|
E|--------------------------4/5-7----------------------------------------------------------------|

G|-----------------------------------------------------------------------------------------------|
D|-----------------------------------------------------------------------------------------------|
A|---7-7-7-7-7-7-7-7-7-7-7-7-7-7-7-7-7-7---------------------------------------------------------|
E|-----------------------------------------------------------------------------------------------|

You get the point.

This is a very fun song to play, and it sounds very cool, its one of my favorites on the album.

Check out my bass cover videos at http://www.youtube.com/jonathanmarreromusic


/ = slide right
Suggest correction
Give kudos to tab author, rate the tab!
1 2 3 4 5
comments
print report bad tab
guest
You may want to rate the tab now too:
select rating
Wanna post a correction for this tab? Suggest correction