Oops, an error
Loading. Please wait.

Arizona Tab

version 1
version 1

Intro

Whole song

Interactive

18,728 views 3 this week
5 commentsread comments
1 2 3 4 5
1 last vote to show rating
add to favorites
launch autoscroll
font size
0
reset
how to read this tab
guitar tuner
Autoscroll
slow
fast
+/-
esc
set tempo
stop
Help us to improve Ultimate-Guitar.com Take our survey!
×
Author
e|----------------------------------------------------|
B|----------------------------------------------------|
G|----------------------------------------------------|
D|-6-7------9--11-11-------9--4-4-----6-6-------------|
A|-7-9-9/11-11-12-12-12\11-11-6-6-6/7-7-7-------------|
E|-0-0-0----0--0--0--0-----0--0-0-0---0-0-------------|

Suggest correction
Give kudos to tab author, rate the tab!
1 2 3 4 5
comments
print report bad tab
5 comments total. Showing first comments.
0 reply
antroolez 920 Feb 19, 2007 08:47 AM

yea gd tab

wt u make of the new album?

0 reply
dave_mullen 249 Feb 23, 2007 05:42 AM

Band : Kings Of Leon
Song : On Call
Album : Because of the Times
Tabbed : Dave Mullen



This will be Kings of Leon's first single
when it eventually comes out.

Here's the Bass line

*Bass*

G|-----------------------------------|
D|-----------------------------------|
A|-----------------------------------|
E|-3-3-3-3-3-0-2-3-7-7-7-7-7-0-0-2---|

G|-----------------------------------|
D|-----------------------------------|
A|-----------------------------------|
E|-3-3-3-3-3-0-2-3-7-7-7-7-7-0-0-2---|




0 reply
dave_mullen 249 Feb 23, 2007 05:42 AM

They rejected my tab!!

guest
You may want to rate the tab now too:
select rating
Wanna post a correction for this tab? Suggest correction