Oops, an error
Loading. Please wait.

Arizona Tab

version 1
version 1

Whole song

Interactive

121,740 views 99 this week
7 commentsread comments
1 2 3 4 5
accurate
x 17
add to favorites
launch autoscroll
font size
0
reset
how to read this tab
guitar tuner
Autoscroll
slow
fast
+/-
esc
set tempo
stop
Help us to improve Ultimate-Guitar.com Take our survey!
×
Difficulty
intermediate
Rhythm:

e|----------------------------------------------------------------|
B|----------------------------------------------------------------|
G|----------------------------------------------------------------|
D|--6---6/7-7-7/9----9-/11-11-11\9--9-----4-4-----6-6-------------|
A|--7---7/9-9-9/11---11/12-12-12\11-11----6-6-6/7-7-7-------------|
E|--0---0---0-0-0----0-----0--0-----0-----0-0-0---0-0-------------|


Lead:

e|----------------------------------------0-0---------------------|
B|--2---4545--/-9----9109109-9-/-12\------5-7bhold----------------|
G|----------------------------------------------------------------|
D|----------------------------------------------------------------|
A|----------------------------------------------------------------|
E|----------------------------------------------------------------|

e|----------------------------------------0--0--------------------|
B|--2---4545--/-9----9109109-9-/-12\------17-19bhold--------------|
G|----------------------------------------------------------------|
D|----------------------------------------------------------------|
A|----------------------------------------------------------------|
E|----------------------------------------------------------------|


Thats pretty much it through the whole song. Listen to the song for the correct timing 
For the break after the 'Shake hands', improvise the rhythm into a lead...its not hard.
Suggest correction
comments
print report bad tab
7 comments total. Showing first comments.
0 reply
antroolez 920 wrote on March 19 2007, 11:12 am

Ragoo Bass

G|-----------------------------------------------------------|
D|-----------------------------------------------------------|
A|-9------------------------9-----9/10/9---------------------|
E|---10---5----7--9--7/5------10-----------10----5-----------|

+5 reply
Emericadude5 10 wrote on September 5 2007, 03:40 pm

I think the lead part sounds a little better like this:
e|------------------------------------0--0--0---|
B|-----5--5--5/9--10-9-10-9-10/12\----5--5--9b~~|
G|-6----6---------------------------------------|

Nice tab though, rythm part sounds right on.

0 reply
The isle of man 10 wrote on October 13 2007, 07:53 am

great song! great tab!

guest
You may want to rate the tab now too:
select rating
Please do not post tabs as comments. Select "correction" instead!