Oops, an error
Loading. Please wait.

Arizona Tab

version 2
version 2

Whole song

Interactive

62,301 views 126 this week
2 commentsread comments
1 2 3 4 5
excellent!
x 19
add to favorites
launch autoscroll
font size
0
reset
how to read this tab
guitar tuner
Autoscroll
slow
fast
+/-
esc
set tempo
stop
Help us to improve Ultimate-Guitar.com Take our survey!
×
Author
Kings of Leon-Arizona  ~= vibrato, b= bend, /= slide

[Rhythm intro]
(play this in the whole song)

e|----------------------------------------------------------|
B|----------------------------------------------------------|
G|----------------------------------------------------------|
D|-6--6-6/7--7-7/9---9--9--9-/11--11-11/9--9---4-4-4-4/6--6-| 
A|-7--7-7/9--9-9/11--11-11-11/12--12-12/11-11--6-6-6-6/7--7-|
E|-0--0-0/0--0-0/0---0--0--0-/0---0--0-/0--0---0-0-0-0/0--0-|


[Lead guitar]

e|---------------------------------------------------------|
B|-2~--5--2--5--5/9~-10--9--10--9--10/12~--5b--7b----------|
G|---------------------------------------------------------|
D|---------------------------------------------------------|
A|---------------------------------------------------------|
E|---------------------------------------------------------|


[Lead guitar second time]

e|-----------------------------------------------------------|
B|-2~--5--2--5--5/9~-10--9--10--9--10/12~--17b--19b----------|
G|-----------------------------------------------------------|
D|-----------------------------------------------------------|
A|-----------------------------------------------------------|
E|-----------------------------------------------------------|


e|---------------------------------------------------------|
B|-2~--5--2--5--5/9~-10--9--10--9--10/12~--5b--7b----------|
G|---------------------------------------------------------|
D|---------------------------------------------------------|
A|---------------------------------------------------------|
E|---------------------------------------------------------|

e|-----------------------------------------------------------|
B|-2~--5--2--5--5/9~-10--9--10--9--10/12~--17b--19b----------|
G|-----------------------------------------------------------|
D|-----------------------------------------------------------|
A|-----------------------------------------------------------|
E|-----------------------------------------------------------|


[Lead guitar]

the three first notes (3-0-0) you hardly recognize, but tabbed them anyway.   
e|--------------------------------------------------------------|
B|---0-0--4-3--2~--5--2--5--5/9~-10--9--10--9--10-/12~--5b--7b--|
G|--------3-2---------------------------------------------------|
D|--------------------------------------------------------------|
A|--------------------------------------------------------------|
E|-3------------------------------------------------------------|


[Lead guitar first time]

e|----------------------------------------------------------|
B|-2~--5--2--5--5/9~-10--9--10--9--10/12~--17b--19b---------|
G|----------------------------------------------------------|
D|----------------------------------------------------------|
A|----------------------------------------------------------|
E|----------------------------------------------------------|

 palm mute all these notes, except the last six (17-17-17-19-19-19).
e|------------------------------------------------------------------------|
B|-2-2-2-2-2-2-5-5-5-5-5-5-9-9-9-9-9-9-12-12-12-12-12-12-5-5-5-5-5-7-7-7-7|
G|------------------------------------------------------------------------|
D|------------------------------------------------------------------------|x2
A|------------------------------------------------------------------------|
E|------------------------------------------------------------------------|

e|------------------------------------------------------------------------|
B|-2-2-2-2-2-2-5-5-5-5-5-5-9-9-9-9-9-9-12-12-12-12-12-12-17-17-17-17-191919|
G|------------------------------------------------------------------------|
D|------------------------------------------------------------------------|x2
A|------------------------------------------------------------------------|
E|------------------------------------------------------------------------|



[Lead guitar second time]

e|-----------------------------------------------------------|
B|-2~--5--2--5--5/9~-10--9--10--9--/12~--5b--7b--------------|
G|-----------------------------------------------------------|
D|-----------------------------------------------------------|
A|-----------------------------------------------------------|
E|-----------------------------------------------------------|

e|----------------------------------------------------------|
B|-2~--5--2--5--5/9~-10--9--10--9--10/12~--17b--19b---------|
G|----------------------------------------------------------|
D|----------------------------------------------------------|
A|----------------------------------------------------------|
E|----------------------------------------------------------|


[Solo]


this is played lower, but it goes higher and higher
e|----------------------------------------------------------|
B|-2~--5--2--5--5/9~-10--9--10--9--10/12~--17b--19b---------|
G|----------------------------------------------------------|
D|----------------------------------------------------------|
A|----------------------------------------------------------|
E|----------------------------------------------------------|

Caled plays this little part forefore the end of the song.

e|------------------------------------------------------------|
B|------------------------------------------------------------|
G|------------------------------------------------------------|
D|---6---6/7--7-------9----9/11--11-------9--------4/6--6-----|
A|-7---7--------9/11----11----------12/11----6-6-6------------|
E|------------------------------------------------------------|


e|-----------------------------------------------------------|
B|-2~--5--2--5--5/9~-10--9--10--9--/12~--5b--7b--------------|
G|-----------------------------------------------------------|
D|-----------------------------------------------------------|
A|-----------------------------------------------------------|
E|-----------------------------------------------------------|


e|----------------------------------------------------------|
B|-2~--5--2--5--5/9~-10--9--10--9--10--10/12~--17b--19b-----|
G|----------------------------------------------------------|
D|----------------------------------------------------------|
A|----------------------------------------------------------|
E|----------------------------------------------------------|



************************************

| b  Bend
| /  Slide up
| ~  Vibrato

************************************
Suggest correction
comments
print report bad tab
2 comments total.
+2 reply
kasiakol 10 wrote on December 31 2010, 05:44 am

maybe you're not sure of the solo, but please, tab it!

0 reply
DomRusky 479 wrote on May 19 2012, 01:26 pm

I agree with the guy above.. tab it anyway- I'm sick of making it up and not having anything to read from!

guest
You may want to rate the tab now too:
select rating
Wanna post a correction for this tab? Suggest correction