Oops, an error
Loading. Please wait.

Be Somebody Bass Tab

version 2
version 2

Whole song

Interactive

15,518 views 6 this week
5 commentsread comments
1 2 3 4 5
x 11
add to favorites
launch autoscroll
font size
0
reset
guitar tuner
Autoscroll
slow
fast
+/-
esc
set tempo
stop
Help us to improve Ultimate-Guitar.com Take our survey!
×
Author
  Be Somebody - Kings Of Leon

   great song just thought i'd tab it out, not too hard really. Enjoy!

i think this bit is palm muted, or it's just his tone
   S S S S S S S S S S S S S S S S  
G||----------------------------------|
D||----------------------------------|
A||----------------------------------|
D||--0-0-0-0-0-0-0-0-0-0-0-0-0-0-0-0-|


  S S S S S S S S S S S S S S S S  
----------------------------------|
----------------------------------|
----------------------------------|
--0-0-0-0-0-0-0-0-0-0-0-0-0-0-0-0-|


  S S S S S S S S S S S S S S S S  
----------------------------------|
----------------------------------|
----------------------------------|
--3-3-3-3-3-3-3-3-3-3-3-3-3-3-3-3-|


  S S S S S S S S S S S S S S S S  
----------------------------------|
----------------------------------|
----------------------------------|
--2-2-2-2-2-2-2-2-2-2-2-2-2-2-2-2-|


   E   E   E   E   E    E    E   E    
--------------11--12s--14s--12--11--||
--12--11--12------------------------||
------------------------------------||
------------------------------------||

just listen to the song it's the same thing throughout.

Thanks!!
Suggest correction
comments
print report bad tab
5 comments total. Showing first comments.
0 reply
Joel B. 325 Apr 03, 2009 05:46 PM

Nice tab.
I play it in Drop D too and I think it's right that way.

0 reply
mongoose232 10 Jul 01, 2009 07:33 AM

do you mean slide by s?

0 reply
bass_boi_ftw 92 Jul 01, 2009 10:50 AM

ye its a slide

guest
You may want to rate the tab now too:
select rating
Wanna post a correction for this tab? Suggest correction