Oops, an error
Loading. Please wait.

Beach Side Tab

version 2
version 2

Whole song

1,071 views 9 this week
no commentswrite comment
1 2 3 4 5
x 3
add to favorites
launch autoscroll
font size
0
reset
how to read this tab
guitar tuner
Autoscroll
slow
fast
+/-
esc
set tempo
stop
Help us to improve Ultimate-Guitar.com Take our survey!
×
Author
Difficulty
This is a pretty cool song from the album Come Around Sundown. A friend who plays bass told me to learn it on 
guitar, but apparently all tabs sucked. So hear are both guitars for this song. Enjoy!!


Rhythm Guitar 

e|------------------------------|
B|--7-------7-5--7/9--------9-7-|
G|--6-------6-6--6/8--------8-8-|
D|--7-------7-7--7/9--------9-9-|
A|------------------------------|
E|------------------------------|


This is played through the whole song with some minor variations here and there. The progression of the song is
F#m Bmaj so keep that in mind if you play rhythm guitar.


Lead Guitar (Use heavy reverb and delay)



Intro


e|----------------------------------| x2
B|----------------------------------|
G|-----2------------------4---------|
D|-------4------------4-------------|
A|-----------------2----------------|
E|--2-------------------------------|



Verse 

No Lead

Pre-Chorus

e|---------------------------------| 
B|-----12/-------------------------|
G|---------------------------------|
D|---------------------------------|
A|---------------------------------|
E|---------------------------------|

Chorus



e|-------------------------------------------------------------| x2
B|---12------14/9-9----12/9--7-9-------------------------------|
G|-------------------------------------------------------------|
D|-------------------------------------------------------------|
A|-------------------------------------------------------------|
E|-------------------------------------------------------------|



e|-------------------------------------------------------------| x2
B|---12------12/9-9----12/9--7-9-----4b5r----------------------|
G|-------------------------------------------------------------|
D|-------------------------------------Bend and release--------|
A|-------------------------------------many times--------------|
E|-------------------------------------------------------------|

e|----------------------------------------4b5r-----------------| x2
B|---12------12/9-9----12/9--7-9-----4b5r----------------------|
G|-------------------------------------------------------------|
D|-------------------------------------Bend and release--------|
A|-------------------------------------many times--------------|
E|-------------------------------------------------------------|

Post Chorus


e|----------------------------------| x2
B|----10------------------12--------|
G|--------11-----------11-----------|
D|-------------------9--------------|
A|--9-------------------------------|
E|----------------------------------|
Suggest correction
Give kudos to tab author, rate the tab!
1 2 3 4 5
comments
print report bad tab
guest
You may want to rate the tab now too:
select rating
Wanna post a correction for this tab? Suggest correction