Oops, an error
Loading. Please wait.

Birthday Bass Tab

version 1
version 1

Whole song

Interactive

10,662 views 21 this week
2 commentsread comments
1 2 3 4 5
accurate
x 9
add to favorites
launch autoscroll
font size
0
reset
guitar tuner
Autoscroll
slow
fast
+/-
esc
set tempo
stop
Help us to improve Ultimate-Guitar.com Take our survey!
×
Author
Difficulty
intermediate
---------------------------------------------------------------------------
			     BIRTHDAY - Kings of Leon
---------------------------------------------------------------------------

Tabbed By : Andrew Saunders
e-mail: mail@andrewsaunders.com

Tuning: Standard (E A D G)
   
   0:16
G|-----------------------------------------------------------------------|
D|-----------------------------------------------------------------------|
A|----5-7-----5-7---99-7-5---99-7-5------5-7-----5-7---99-7-5---99-7-5---| X1
E|--7------77-------------------------77------77-------------------------|

G|-----------------------------------------------------------------------|
D|-----------------------------------------------------------------------|
A|----5-7-----5-7---99-7-5---99-7-5------5-7-----5-7---99-7-5---99-7-5---| X2
E|-77------77-------------------------77------77-------------------------|
   
  1:05
G|-----------------------------------------------------------------------|
D|-----------------------------------------------------------------------|
A|-----------------------------------------------------------------------|
E|-3333-3333-3333-3333-7777-7777-7777-7777-------------------------------|

G|-----------------------------------------------------------------------|
D|-----------------------------------------------------------------------|
A|-------------------------------9-7-5-----------------------------------|
E|-3333-3333-3333-3333-7777-7777-----------------------------------------|

  1:21
G|-----------------------------------------------------------------------|
D|-----------------------------7-5---------------------------------------|
A|-----57-----5-7---99-7-5---99------------------------------------------| X1
E|--7------77------------------------------------------------------------|

G|-----------------------------------------------------------------------|
D|-----------------------------------------------------------------------|
A|----5-7-----5-7---99-7-5---99-7-5------5-7------5-7---99-7-5---99-7-5--| X2
E|-77------77-------------------------77------77-------------------------|

  2:01
G|-----------------------------------------------------------------------|
D|-----------------------------------------------------------------------|
A|-----------------------------------------------------------------------|
E|-3333-3333-3333-3333-7777-7777-7777-7777-------------------------------|

G|-----------------------------------------------------------------------|
D|-----------------------------------------------------------------------|
A|-------------------------------9-7-5-----------------------------------|
E|-3333-3333-3333-3333-7777-7777-----------------------------------------|

  2:17
G|-----------------------------------------------------------------------|
D|--------------------7-5---------------------------------7-5------------|
A|----5-7-----5-7---99-----99-7-5---------5-7-----5-7---99-----99-7-5----| 
E|--7------77-------------------------77-------77------------------------|

  2:33
G|-----------------------------------------------------------------------|
D|-----------------------------------------------------------------------|
A|-----------------------------------------------------------------------|
E|--3----7---------------------------------------------------------------|

  2:41
G|-----------------------------------------------------------------------|
D|-----------------------------------------------------------------------|
A|-----------------------------------------------------------------------| X2
E|-3333-3333-3333-3333-7777-7777-7777-7777-------------------------------|

G|-------------------------------------9999-9999-------------------------|
D|-12121212-12121212-12121212-12121212-----------------------------------|
A|------------------------------------------------9-7-5------------------|
E|-----------------------------------------------------------------------|

  3:06
G|-----------------------------------------------------------------------|
D|---------------------7-5-----------------------------------------------|
A|---5-7------5-7---99---------------------------------------------------| 
E|-7------77-------------------------------------------------------------|


===========================================================================
Suggest correction
What's this?
You can suggest a correction to this tab. Community and Mods will review your correction and vote to approve or reject it.
comments
print report bad tab
2 comments total.
0 reply
4useless 2,782 wrote on October 15 2010, 07:13 pm

Little corrections:

G|---------------------------------|
D|-----------------------------7-9-|
A|-----57-----5-7---99-7-5---99----|
E|--7------77----------------------|
bend.release ^

2:17 Here on D string there are 7-9 not 7-5
and there's one note to bend.release (14th note on A)
3:06 Same mistake with 7-9 on D

And last one (Your notes are too high):

2:57
G|-------------------------------------|
D|-------------------------------------|
A|-5555-5555-5555-5555-7777-7777-9-7-5-|
E|-------------------------------------|

Otherwise Your tab is perfect.

0 reply
4useless 2,782 wrote on October 15 2010, 07:15 pm

About my first correction: first bend.release is on 4th note on A.

guest
You may want to rate the tab now too:
select rating
Please do not post tabs as comments. Select "correction" instead!