Oops, an error
Loading. Please wait.

Black Thumbnail Bass Tab

version 1
version 1

Whole song

Interactive

10,528 views 3 this week
4 commentsread comments
1 2 3 4 5
accurate
x 3
add to favorites
launch autoscroll
font size
0
reset
guitar tuner
Tab Pro tools
  • play this tab
  • loop segment
  • change instrument
  • show fretboard
  • metronome
×
Best way to learn
"Black Thumbnail"
Autoscroll
slow
fast
+/-
esc
set tempo
stop
Contributor
Difficulty
intermediate
Kings of Leon with Black Thumbnail
Tabbed by kruutje
This tab is 95% correct, few things in the end are not good to hear.. It's very cool to 
this bassline, even as many other KOL songs.
Standard tuning.

No intro untill 0.40 with tremolo:
G|-------------------|
D|--12~--10~\--/14~--|
A|-------------------|
E|-------------------|

Verse 1 (no tremolo)
G|--------------------------------------------------------------------|
D|-12/14~-12/14~-12/14~-12~-12/14~-12/14~-12/14~-10/12~-10/12~-10/12~-|
A|--------------------------------------------------------------------|
E|--------------------------------------------------------------------|

G|----------------------------------------------------|
D|-10-12-11-10-9-7-9-12-14--7/9-12-14--7-9-12-14------|
A|----------------------------------------------9\\\--|
E|----------------------------------------------------|

Chorus
G|-------------------------|
D|-------------------------|
A|--5/777-5/777-5/777-5555-|
E|-------------------------|

Verse 2 (with tremolo)
G|-----------------------------|
D|-12/14~-12/14~-12/14~-12/14~-|
A|-----------------------------|
E|-----------------------------|

(without trem)
G|-------------------------------------------------------------------|
D|-7/9-12-14--7-9-12-14--7/9-12-14--7-9-12-14—-7/9-12-16—7-9-12-16---|
A|----------------------------------------------------------------9\-|
E|-------------------------------------------------------------------| 2x

Chorus
G|-------------------------------|
D|-------------------------------|
A|--5/777-5/777-5/777-5/777-5555-|
E|-------------------------------|

Now get her, go get her..
G|----9-----9----7----7-|
D|----------------------|
A|--57----57---57---57--|
E|-0-----0----0----0----| 3x

End of guitar solo:
G|-----------------------|
D|-/12\--/14\--/10\--/7\-|
A|-----------------------|
E|-----------------------|

Verse 3
Rest utill: I’ll be that person..
G|-------|
D|--12~~-|
A|-------|
E|-------|

G|----------------------------------------------------|
D|-10-12-11-10-9-7-9-12-14--7/9-12-16--7-9-12-14------|
A|----------------------------------------------9\\\--|
E|----------------------------------------------------|

Chorus
G|-------------------------|
D|-------------------------|
A|--5/777-5/777-5/777-5555-|
E|-------------------------| 2x

G|----9----9----7----7-|
D|---------------------|
A|--57---57---57---57--|
E|-0----0----0----0----| 2x

End: (play soft..)
G|----------------|
D|----------------|
A|--7\~--7\~--5\~-|
E|----------------|
comments
We did not receive enough feedback on this tab! Please rate:
print report bad tab
1 2 3 4 5
4 comments total. Showing first comments.
0 reply
benblakeway14 wrote on November 2 2008, 02:28 pm

This is so wrong :( the first verse is played on the E string. 11th fret hammering onto the 12th and then the 9th fret hammering onto the 11th.

The bit before the second part of the first verse and the whole second verse is...

G-------------
D-12-11-10-9--
A-------------
E-------------

The second part of the first verse and the entire second verse is...

G-------------------
D-----------12-14---
A--------14---------
E-12(12)------------

I'm not even gonna start on the solo and stuff >_<

0 reply
benblakeway14 wrote on November 2 2008, 02:30 pm

[ edit ]

Sorry, during the first verse I meant 9th fret hammering onto the 10th, not 11th :]

All the bits I corrected are with the tremelo effect, by the way.

+1 reply
kruutje wrote on November 2 2008, 02:38 pm

make a tab yourself.. i will look through your corrections, maybe i correct it...

I want to post or [tab]
guest
You may want to rate the tab now too:
select rating
Please do not post tabs as comments. Select "correction" instead!