Oops, an error
Loading. Please wait.

Black Thumbnail Tab

version 1
version 1

Intro

Whole song

Interactive

10,441 views 6 this week
7 commentsread comments
1 2 3 4 5
accurate
x 10
add to favorites
launch autoscroll
font size
0
reset
how to read this tab
guitar tuner
Autoscroll
slow
fast
+/-
esc
set tempo
stop
Help us to improve Ultimate-Guitar.com Take our survey!
×
Author
This is the intro i saw them play live and most of the song me thinks

    D   D     D  U  D  U     D   D     D  U  D  U
e|--12--12----12-12-12-12----12--12----12-12-12-12----------|
B|--12--12----12-12-12-12----12--12----12-12-12-12----------|
G|--13--13----13-13-13-13----13--13----13-13-13-13----------|
D|--14--14----14-14-14-14----14--14----14-14-14-14----------|
A|--14--14----14-14-14-14----14--14----14-14-14-14----------|
E|--12--12----12-12-12-12----12--12----12-12-12-12----------|

Then for the chorus when it goes down for a bit:

    D   D     D  U  D  U     D   D     D  U  D  U
e|--10--10----10-10-10-10----10--10----10-10-10-10----------|
B|--10--10----10-10-10-10----10--10----10-10-10-10----------|
G|--11--11----11-11-11-11----11--11----11-11-11-11----------|
D|--12--12----12-12-12-12----12--12----12-12-12-12----------|
A|--12--12----12-12-12-12----12--12----12-12-12-12----------|
E|--10--10----10-10-10-10----10--10----10-10-10-10----------|

A. Taylor


Suggest correction
What's this?
You can suggest a correction to this tab. Community and Mods will review your correction and vote to approve or reject it.
comments
print report bad tab
7 comments total. Showing first comments. show 2 bad comments
-1 reply
antroolez 1,984 wrote on March 19 2007, 11:12 am

Ragoo Bass

G|-----------------------------------------------------------|
D|-----------------------------------------------------------|
A|-9------------------------9-----9/10/9---------------------|
E|---10---5----7--9--7/5------10-----------10----5-----------|

guest
You may want to rate the tab now too:
select rating
Please do not post tabs as comments. Select "correction" instead!