Oops, an error
Loading. Please wait.

Bucket Tab

version 1
version 1

Acoustic

Whole song

Interactive

21,412 views 6 this week
1 commentread comment
1 2 3 4 5
please rate
add to favorites
launch autoscroll
font size
0
reset
how to read this tab
guitar tuner
Autoscroll
slow
fast
+/-
esc
set tempo
stop
Help us to improve Ultimate-Guitar.com Take our survey!
×
-------------------------------------------------------------------------
Song:Four Kicks
Artist:Kings of Leon
Album:A-Ha Shake Heartbreak
Tabber:Alexthebeatle
-------------------------------------------------------------------------

-I'm working on the full song but it will take a while so I've put the
 basic chords so everybody can work with them and submit the full version
 if I don't do it before.

---------------------------------------------------------------------------
VERSE:

D           D/C#   Bm           A
I'll be the one to show you the way

D             D/C#   Bm          A
You'll be the one to always complain

D        D/C#           Bm        A
3 in the morning come a bang bang bang

D          D/C#       Bm         A
All out of fags and I just can't wait

D          D/C#       Bm         A
Cancel the thing that I said I'd do

D            D/C#        Bm         A
I don't feel comfortable talking to you

D                    D/C#   Bm          A
(Un)less you got the zipper fixed on my shoe

D                   D/C#  Bm           A
Then I'll be in the lobby drinking for two


----------------------------------------------------------------------------
CHORUS:
----------------------------------------------------------------------------

Bm        A         D
Eighteen  Balding   Star
                  |--3-----3-----3-----3------|
                  |----2-----2-----2-----2----|
                  |------3----3------3----3---|
                  |---------------------------|
                  |---------------------------|
                  |---------------------------|
                            (SECOND GUITAR)

Bm        A         D
Golden    Falling   Hard
                   |--3-----3-----3-----3------|
                   |----2-----2-----2-----2----|
                   |------3----3------3----3---|
                   |---------------------------|
                   |---------------------------|
                   |---------------------------|
                            (SECOND GUITAR)

---------------------------------------------------------------------------
VERSE:
---------------------------------------------------------------------------

D           D/C#    Bm              A
Look at the shakies what's with the blush?

D             D/C#        Bm    A
fresh off the plane in my fuzzy rush

D          D/#         Bm    A
Everyone's gathered to idolize me

D                  D/C#        Bm      A
I hate the way you talk, your japanese scream

D             D/C#       Bm            A
It's been too long since i've left the shed

D            D/C#    Bm            A
You kick the bucket, I'll swing my legs

D         D/C#      Bm           A
Always remember the pact that we made

D            D/C#     Bm         A
Too young to die, but old is the grave

----------------------------------------------------------------------------
CHORUS:
----------------------------------------------------------------------------

Bm        A         D
Eighteen  Balding   Star
                  |--3-----3-----3-----3------|
                  |----2-----2-----2-----2----|
                  |------3----3------3----3---|
                  |---------------------------|
                  |---------------------------|
                  |---------------------------|
                        (SECOND GUITAR)

Bm        A         D
Golden    Falling   Hard
                   |--3-----3-----3-----3------|
                   |----2-----2-----2-----2----|
                   |------3----3------3----3---|
                   |---------------------------|
                   |---------------------------|
                   |---------------------------|
                        (SECOND GUITAR)

---------------------------------------------------------------------------
 SOLO:i'm working on it
---------------------------------------------------------------------------

---------------------------------------------------------------------------
 BRIDGE:
---------------------------------------------------------------------------
 D          D/C#         Bm    A
 I am gonna show you the way

 D          D/C#         Bm    A
 I am gonna show you the way

 D          D/C#         Bm    A
 I am gonna show you the way

 D          D/C#         Bm    A
 I am gonna show you the way

----------------------------------------------------------------------------
CHORUS:
----------------------------------------------------------------------------

Bm        A         D
Eighteen  Balding   Star

----------------------------------------------------------------------------

----------------------------------------------------------------------------
 A-HA SHAKE HEARTBREAK IS GONNA LIVE FOREVER
----------------------------------------------------------------------------
Suggest correction
Give kudos to tab author, rate the tab!
1 2 3 4 5
comments
print report bad tab
1 comment total.
0 reply
RSalva 10 wrote on November 5 2009, 12:48 pm

the name of the song is wrong, dude.

guest
You may want to rate the tab now too:
select rating
Please do not post tabs as comments. Select "correction" instead!