Oops, an error
Loading. Please wait.

Bucket Tab

version 2
version 2

Whole song

Interactive

Video

24,678 views 3 this week
no commentswrite comment
1 2 3 4 5
x 13
add to favorites
launch autoscroll
font size
0
reset
how to read this tab
guitar tuner
Autoscroll
slow
fast
+/-
esc
set tempo
stop
Help us to improve Ultimate-Guitar.com Take our survey!
×
Author
The other one was a bit wrong so I made it better

Intro

   x8   x4   x4                  x8   x4    x4 
    
|--14---17---14-------------|----9----12----9-----------|
|--15---15---15-------------|----10---10----10----------|
|--14---14---14-------------|----9-----9----9-----------|
|---------------------------|---------------------------|
|---------------------------|---------------------------|
|---------------------------|---------------------------|

   x8   x6   x2                  x8   x4    x4 
    
|--7----9----7--------------|----7----9----7------------|
|--8----8----8--------------|----8----8----8------------|
|--7----7----7--------------|----7----7----7------------|
|---------------------------|---------------------------|
|---------------------------|---------------------------|
|---------------------------|---------------------------|

solo

|--7-5--5---7-5--5---7-5----|---------------------------|
|-----7---------7--------7--|--7-5--5---7-5--5---7-5----|
|---------------------------|-----6---------6--------6--|
|---------------------------|---------------------------|
|---------------------------|---------------------------|
|---------------------------|---------------------------|



|---------------------------|---------------------------|
|--5-3--3---5-3--3---5-3----|--5-3--3---5-3--3---5-3----|
|-----4---------4--------4--|-----4---------4--------4--|
|---------------------------|---------------------------|
|---------------------------|---------------------------|
|---------------------------|---------------------------|

VERSE:

D           
I'll be the one to show you the way
A
You'll be the one to always complain
G
3 in the morning come a bang, bang, bang
G
All out of fags and I just can't wait
D          
Cancel the thing that I said I'd do
A
I don't feel comfortable talking to you
G
Unless you got the zipper fixed on my shoe
G
Then I'll be in the lobby drinking for two

Chorus:

Em        A         D
Eighteen  Balding   Star

   
|--14---------14------------|---14----------14----------|
|----15---------15----------|-----15----------15--------|
|------14--------14---------|-------14----------14------|
|---------------------------|---------------------------|
|---------------------------|---------------------------|
|---------------------------|---------------------------|

Em        A       D  
Golden    Fallen  Heart

|--14---------14------------|---14----------14----------|
|----15---------15----------|-----15----------15--------|
|------14--------14---------|-------14----------14------|
|---------------------------|---------------------------|
|---------------------------|---------------------------|
|---------------------------|---------------------------|


Verse:

D           
Look at the shaky's what's with the blush
A
fresh off the plane in my fuzzy rush
G
Everyone's gathered to idolize me
G
I hate the way you talk, your japanese scream
D 
It's been too long since i've left the shed
A
You kick the bucket, I'll swing my legs
G
Always remember the pact that we made
G
Too young to die, but old is the grave

Chorus:

Em        A         D
Eighteen  Balding   Star

|--14---------14------------|---14----------14----------|
|----15---------15----------|-----15----------15--------|
|------14--------14---------|-------14----------14------|
|---------------------------|---------------------------|
|---------------------------|---------------------------|
|---------------------------|---------------------------|

Em        A       D  
Golden    Fallen  Heart

|--14---------14------------|---14----------14----------|
|----15---------15----------|-----15----------15--------|
|------14--------14---------|-------14----------14------|
|---------------------------|---------------------------|
|---------------------------|---------------------------|
|---------------------------|---------------------------|

solo

|--7-5--5---7-5--5---7-5----|---------------------------|
|-----7---------7--------7--|--7-5--5---7-5--5---7-5----|
|---------------------------|-----6---------6--------6--|
|---------------------------|---------------------------|
|---------------------------|---------------------------|
|---------------------------|---------------------------|

|---------------------------|---------------------------|
|--5-3--3---5-3--3---5-3----|--5-3--3---5-3--3---5-3----|
|-----4---------4--------4--|-----4---------4--------4--|
|---------------------------|---------------------------|
|---------------------------|---------------------------|
|---------------------------|---------------------------|

 I'm a gonna show the way     I'm a gonna show the way

|--14---------14------------|---14----------14----------|
|----15---------15----------|-----12----------12--------|
|------14--------14---------|-------14----------14------|
|---------------------------|---------------------------|
|---------------------------|---------------------------|
|---------------------------|---------------------------|

 I'm a gonna show the way     I'm a gonna show the way

|--12---------12------------|---12----------12----------|
|----10---------10----------|-----10----------10--------|
|------12--------12---------|-------12----------12------|
|---------------------------|---------------------------|
|---------------------------|---------------------------|
|---------------------------|---------------------------|

Em        A        D 
Eighteen  Balding  Star
Suggest correction
comments
print report bad tab
guest
You may want to rate the tab now too:
select rating
Wanna post a correction for this tab? Suggest correction