Oops, an error
Loading. Please wait.

Bucket Bass Tab

version 5
version 5
1,824 views 1 this week
1 commentread comment
1 2 3 4 5
please rate
add to favorites
launch autoscroll
font size
0
reset
guitar tuner
Autoscroll
slow
fast
+/-
esc
set tempo
stop
Help us to improve Ultimate-Guitar.com Take our survey!
×
Author
Standard tuning

Let the guitar play the intro then come in with the drums

G-14-14-14-14-14-14-14-14---16-16-16-16-16-16-16-16--|
D-12-12-12-12-12-12-12-12---12-12-12-12-12-12-12-12--|  x12
A----------------------------------------------------|
E----------------------------------------------------|

G-------------------------------------------------------|
D-------------------------------------------------------|
A-----------------5-5-5-5-5-5-5-5-5-5-5-5-5-5-5-5-------|    x2
E-3>----5>----------------------------------------------|

G-14-14-14-14-14-14-14-14---16-16-16-16-16-16-16-16--|
D-12-12-12-12-12-12-12-12---12-12-12-12-12-12-12-12--|     x2
A----------------------------------------------------|
E----------------------------------------------------|

G---------------------|
D---------------------|  (hear the song to know when to go to the next part)
A-5-5-5-5-5-5-5-5-----|
E---------------------|

G-------------------------------------------------------|
D-------------------------------------------------------|
A-----------------5-5-5-5-5-5-5-5-5-5-5-5-5-5-5-5-------|    x2
E-3>----5>----------------------------------------------|

G-14-14-14-14-14-14-14-14---16-16-16-16-16-16-16-16--|
D-12-12-12-12-12-12-12-12---12-12-12-12-12-12-12-12--|     x6
A----------------------------------------------------|
E----------------------------------------------------|

G---------------------|
D---------------------|  (hear the song to know when to go to the outro)
A-5-5-5-5-5-5-5-5-----|
E---------------------|

Outro

G--------------------------------------------|
D--------------------------------------------|
A---------------------------5-----5-5--------|
E-3>--------5>----5-/-7-----7----------------|
Suggest correction
Give kudos to tab author, rate the tab!
1 2 3 4 5
comments
print report bad tab
1 comment total.
0 reply
jammyninja 50 wrote on July 28 2008, 03:40 pm

I'm gonna rate this as a 3 just so people will hopefully look at it, I don't know if it's definitely right but the beginning bit looks right (the high bit on the 12th, 14th and 16th frets), at Glastonbury the bassist was playing around that area rather than just root notes.

guest
You may want to rate the tab now too:
select rating
Please do not post tabs as comments. Select "correction" instead!