Oops, an error
Loading. Please wait.

Bucket Bass Tab

version 6
version 6
7,671 views 6 this week
1 commentread comment
1 2 3 4 5
x 3
add to favorites
launch autoscroll
font size
0
reset
guitar tuner
Autoscroll
slow
fast
+/-
esc
set tempo
stop
Help us to improve Ultimate-Guitar.com Take our survey!
×
Please rate-This is my first tab. There doesn't seem to be a proper one out there. Thanks

The Bucket

Start with the drums...
Intro\verse:

g|-----------------1414141414141414-|-----------------1414141414141414-|  |
d|-1212121212121212-----------------|-1212121212121212-----------------|  |
a|----------------------------------|----------------------------------|  |x6
e|----------------------------------|----------------------------------|  |
        

                                                                  
Chorus:

g|----------------------------------|----------------------------------| -
d|----------------------------------|----------------------------------|  |
a|----------------------------------|----------------------------------|  |
e|--3~------------------------------|-5~-------------------------------|  |

g|----------------------------------|----------------------------------|  |
d|----------------------------------|----------------------------------|  |
a|--5-5-5-5-5-5-5-5-5-5-5-5-5-5-5-5-|-5-5-5-5-5-5-5-5-5-5-5-5-5-5-5-5--|  |
e|----------------------------------|----------------------------------|  |

g|----------------------------------|----------------------------------|  |
d|----------------------------------|----------------------------------|  |
a|----------------------------------|----------------------------------|  |
e|--3~------------------------------|-5~-------------------------------|  |

g|-----------------1414141414141414-|-----------------1414141414141414-|  |
d|-1212121212121212-----------------|-1212121212121212-----------------|  |
a|----------------------------------|----------------------------------|  |
e|----------------------------------|----------------------------------| -
                                                                           

Verse:

g|----------------------------------|----------------------------------| -|
d|----------------------------------|----------------------------------|  |
a|--5-5-5-5-5-5-5-5-5-5-5-5-5-5-5-5-|----------------------------------|  |
e|----------------------------------|-5-5-5-5-5-5-5-5-5-5-5-5-5-5-5-5--|  |
                                                                          x2 
g|----------------------------------|----------------------------------|  |
d|----------------------------------|----------------------------------|  |
a|----------------------------------|----------------------------------|  |
e|--3-3-3-3-3-3-3-3-3-3-3-3-3-3-3-3-|-3-3-3-3-3-3-3-3-3-3-3-3-3-3-3-3--| -|



Chorus:

g|----------------------------------|----------------------------------| -
d|----------------------------------|----------------------------------|  |
a|----------------------------------|----------------------------------|  |
e|--3~------------------------------|-5~-------------------------------|  |

g|----------------------------------|----------------------------------|  |
d|----------------------------------|----------------------------------|  |
a|--5-5-5-5-5-5-5-5-5-5-5-5-5-5-5-5-|-5-5-5-5-5-5-5-5-5-5-5-5-5-5-5-5--|  |
e|----------------------------------|----------------------------------|  |

g|----------------------------------|----------------------------------|  |
d|----------------------------------|----------------------------------|  |
a|----------------------------------|----------------------------------|  |
e|--3~------------------------------|-5~-------------------------------|  |

g|-----------------1414141414141414-|-----------------1414141414141414-|  |
d|-1212121212121212-----------------|-1212121212121212-----------------|  |
a|----------------------------------|----------------------------------|  |
e|----------------------------------|----------------------------------| -
                                                                           


Link:

g|-----------------1414141414141414-|-----------------1414141414141414-|  |
d|-1212121212121212-----------------|-1212121212121212-----------------|  |
a|----------------------------------|----------------------------------|  |x2
e|----------------------------------|----------------------------------|  |
                                                                           


Ending:

g|----------------------------------|----------------------------------| -
d|----------------------------------|----------------------------------|  |
a|--5-5-5-5-5-5-5-5-5-5-5-5-5-5-5-5-|----------------------------------|  |
e|----------------------------------|-5-5-5-5-5-5-5-5-5-5-5-5-5-5-5-5--|  |
                                                                          |
g|----------------------------------|----------------------------------|  |
d|----------------------------------|----------------------------------|  |
a|----------------------------------|----------------------------------|  |
e|--3-3-3-3-3-3-3-3-3-3-3-3-3-3-3-3-|-3-3-3-3-3-3-3-3-3-3-3-3-3-3-3-3--| -


g|----------------------------------|----------------------------------|  |
d|----------------------------------|----------------------------------|  |
a|----------------------------------|-------------------7---------5----|  |
e|--3~------------------------------|-5~---------5/7---------7/5-------|  |



Suggest correction
Give kudos to tab author, rate the tab!
1 2 3 4 5
comments
print report bad tab
1 comment total.
0 reply
fishus101 137 Oct 21, 2014 05:14 AM

Lack of accuracy. Intro/verse is wrong. The 12th and 14th fret are played together, not one after the other. Its also missed the 16th fret of the G string.
Chorus is close but still wrong

guest
You may want to rate the tab now too:
select rating
Wanna post a correction for this tab? Suggest correction