Oops, an error
Loading. Please wait.

Bucket Bass Tab

version 7
version 7
677 views 1 this week
no commentswrite comment
1 2 3 4 5
2 more votes to show rating
add to favorites
launch autoscroll
font size
0
reset
guitar tuner
Autoscroll
slow
fast
+/-
esc
set tempo
stop
Help us to improve Ultimate-Guitar.com Take our survey!
×
Author
Difficulty
novice
---------------------------------------------------------------------------
THE BUCKET – Kings of Leon
---------------------------------------------------------------------------

Tabbed by: Minty731
E-mail: samlinger2000@yahoo.co.uk

Tuning: Standard

I’ve checked all the other tabs on here and none are completely accurate.
This is 100% correct. If you listen when they play it live it’s easier to hear the bass 
at the start. He plays the high D on the 12th fret adding in the 14th and 16th frets on 
the G string.

G|-14-14-14-14-14-14-14-14-16-16-16-16-16-16-16-16------------|
D|-12-12-12-12-12-12-12-12-12-12-12-12-12-12-12-12------------| x 12
A|------------------------------------------------------------|
E|------------------------------------------------------------|

G|------------------------------------------------------------|
D|------------------------------------------------------------|
A|------------------------------------------------------------|
E|-3-----------------------5----------------------------------|

G|------------------------------------------------------------|
D|------------------------------------------------------------| x 2
A|-5-5-5-5-5-5-5-5-5-5-5-5-5-5-5-5----------------------------|
E|------------------------------------------------------------|

G|------------------------------------------------------------|
D|------------------------------------------------------------|
A|------------------------------------------------------------|
E|-3-----------------------5----------------------------------|

G|-14-14-14-14-14-14-14-14-16-16-16-16-16-16-16-16------------|
D|-12-12-12-12-12-12-12-12-12-12-12-12-12-12-12-12------------| x 2
A|------------------------------------------------------------|
E|------------------------------------------------------------|

G|------------------------------------------------------------|
D|------------------------------------------------------------| x 8
A|-5-5-5-5-5-5-5-5-5-5-5-5-5-5-5-5----------------------------|
E|------------------------------------------------------------|

G|------------------------------------------------------------|
D|------------------------------------------------------------|
A|------------------------------------------------------------|
E|-3-----------------------5----------------------------------|

G|------------------------------------------------------------|
D|------------------------------------------------------------| x 2
A|-5-5-5-5-5-5-5-5-5-5-5-5-5-5-5-5----------------------------|
E|------------------------------------------------------------|

G|------------------------------------------------------------|
D|------------------------------------------------------------|
A|------------------------------------------------------------|
E|-3-----------------------5----------------------------------|



G|-14-14-14-14-14-14-14-14-16-16-16-16-16-16-16-16------------|
D|-12-12-12-12-12-12-12-12-12-12-12-12-12-12-12-12------------| x 6
A|------------------------------------------------------------|
E|------------------------------------------------------------|



G|------------------------------------------------------------|
D|------------------------------------------------------------| x 4
A|-5-5-5-5-5-5-5-5-5-5-5-5-5-5-5-5----------------------------|
E|------------------------------------------------------------|

G|------------------------------------------------------------|
D|------------------------------------------------------------|
A|-----------------------------7------------------------------|
E|-3-------------5---------7/9---9\5--------------------------|
Suggest correction
Give kudos to tab author, rate the tab!
1 2 3 4 5
comments
print report bad tab
guest
You may want to rate the tab now too:
select rating
Wanna post a correction for this tab? Suggest correction