Oops, an error
Loading. Please wait.

Bucket Bass

version 7
version 7

Interactive

306 views 1 this week
no commentswrite comment
1 2 3 4 5
2 more votes to show rating
add to favorites
launch autoscroll
font size
0
reset
guitar tuner
×
Best way to learn
"Bucket"
Autoscroll
slow
fast
+/-
esc
set tempo
stop
Author
Difficulty
intermediate
Kings of Leon - The Bucket

I spent a lot of time researching videos (live performances) working this out, 
then discovered some guy had created this youtube clip which demonstrates it nicely... 
www.youtube.com/watch?v=0t2d6jkJILM

Start with the drums...
Intro\verse:

g|-1414141414141414-1616161616161616|-1414141414141414-1616161616161616|  
d|-1212121212121212-1212121212121212|-1212121212121212-1212121212121212|  
a|----------------------------------|----------------------------------|x6
e|----------------------------------|----------------------------------|          

                                                                  
Chorus:

g|----------------------------------|----------------------------------| 
d|----------------------------------|----------------------------------|  
a|----------------------------------|----------------------------------|  
e|--3~------------------------------|-5~-------------------------------|  

g|----------------------------------|----------------------------------|  
d|----------------------------------|----------------------------------|  
a|--5-5-5-5-5-5-5-5-5-5-5-5-5-5-5-5-|-5-5-5-5-5-5-5-5-5-5-5-5-5-5-5-5--|  
e|----------------------------------|----------------------------------|  

g|----------------------------------|----------------------------------|  
d|----------------------------------|----------------------------------|  
a|----------------------------------|----------------------------------|  
e|--3~------------------------------|-5~-------------------------------|  

g|----------------------------------|----------------------------------|  
d|----------------------------------|----------------------------------|  
a|--5-5-5-5-5-5-5-5-5-5-5-5-5-5-5-5-|-5-5-5-5-5-5-5-5-5-5-5-5-5-5-5-5--|  
e|----------------------------------|----------------------------------|  
                                                                           

Verse:

g|-1414141414141414-1616161616161616|-1414141414141414-1616161616161616|  
d|-1212121212121212-1212121212121212|-1212121212121212-1212121212121212|  
a|----------------------------------|----------------------------------|x4
e|----------------------------------|----------------------------------|          




Chorus:

g|----------------------------------|----------------------------------| 
d|----------------------------------|----------------------------------|  
a|----------------------------------|----------------------------------|  
e|--3~------------------------------|-5~-------------------------------|  

g|----------------------------------|----------------------------------|  
d|----------------------------------|----------------------------------|  
a|--5-5-5-5-5-5-5-5-5-5-5-5-5-5-5-5-|-5-5-5-5-5-5-5-5-5-5-5-5-5-5-5-5--|  
e|----------------------------------|----------------------------------|  

g|----------------------------------|----------------------------------|  
d|----------------------------------|----------------------------------|  
a|----------------------------------|----------------------------------|  
e|--3~------------------------------|-5~-------------------------------|  

g|----------------------------------|----------------------------------|  
d|----------------------------------|----------------------------------|  
a|--5-5-5-5-5-5-5-5-5-5-5-5-5-5-5-5-|-5-5-5-5-5-5-5-5-5-5-5-5-5-5-5-5--|  
e|----------------------------------|----------------------------------|  
                                                                           


Link:

g|-1414141414141414-1616161616161616|-1414141414141414-1616161616161616|  
d|-1212121212121212-1212121212121212|-1212121212121212-1212121212121212|  
a|----------------------------------|----------------------------------|x2
e|----------------------------------|----------------------------------|          
                                                                           


Ending:

g|----------------------------------|----------------------------------| 
d|----------------------------------|----------------------------------|  
a|--5-5-5-5-5-5-5-5-5-5-5-5-5-5-5-5-|--5-5-5-5-5-5-5-5-5-5-5-5-5-5-5-5-|  
e|----------------------------------|----------------------------------|  
                                                                          
g|----------------------------------|----------------------------------| 
d|----------------------------------|----------------------------------|  
a|--5-5-5-5-5-5-5-5-5-5-5-5-5-5-5-5-|--5-5-5-5-5-5-5-5-5-5-5-5-5-5-5-5-|  
e|----------------------------------|----------------------------------|  


g|----------------------------------|----------------------------------|  
d|----------------------------------|-------------------7--------------|  
a|----------------------------------|--------------7/9-----9------5/---|  
e|--3~------------------------------|-5~-------------------------------|  
 
Suggest correction
Give kudos to tab author, rate the tab!
1 2 3 4 5
comments
print report bad tab
guest
You may want to rate the tab now too:
select rating
Wanna post a correction for this tab? Suggest correction