Oops, an error
Loading. Please wait.

California Waiting Bass Tab

version 2
version 2

Whole song

Interactive

18,330 views 12 this week
5 commentsread comments
1 2 3 4 5
x 11
add to favorites
launch autoscroll
font size
0
reset
guitar tuner
Autoscroll
slow
fast
+/-
esc
set tempo
stop
Help us to improve Ultimate-Guitar.com Take our survey!
×
Author
Difficulty
intermediate
I got annoyed looking at the tab on here thats upside down. So i redid it the right way up.

-Intro-

G|--------------------------------------4444-11-11-11-11-14-14-14-----------------|
D|5555555555555-4------------------5555-------------------------------------------|
A|----------------5555555555555555--------------------------------5555555555555555|
E|--------------------------------------------------------------------------------|

-Verse-

G|---------------------------------------------------------------------|
D|5555555555555-4------------------5555555555555-4---------------------|
A|----------------5555555555555555-----------------5555555555555555----|
E|---------------------------------------------------------------------|

G|---------------------------------4444444444444444-2222222222222222---|
D|5555555555555-4------------------------------------------------------|
A|----------------5555555555555555-------------------------------------|
E|---------------------------------------------------------------------|

-Chorus-

G|------------------------------------------44444444-------------------|
D|5555555555555-4-------------------55555555---------------------------|
A|----------------5555555555555555------------------5555555555555555---|
E|---------------------------------------------------------------------|

G|------------------------------------------44444444-------------------|
D|5555555555555-4-------------------55555555---------------------------|
A|----------------5555555555555555------------------5555555555555555---|
E|---------------------------------------------------------------------|

-Verse-

-Chorus-

-Bridge-

G|------------------------------------------------------------------|
D|---------------------------------77777777777777777777777777777777-|
A|-44444444444444444444444444444444---------------------------------|
E|------------------------------------------------------------------|

-Pre-Chorus-

G|--------------------------------------------------------------------|
D|5r------------------------------------------------------------------|
A|---------------------------------5r----------------------------5/7\-|
E|--------------------------------------------------------------------|

G|--------------------------------------------------------------------|
D|5r------------------------------------------------------------------|
A|---------------------------------5r---------------------------------|
E|--------------------------------------------------------------------|

G|------------------------------------------44444444------------------|
D|5555555555555-4-------------------55555555--------------------------|
A|----------------5555555555555555------------------5555555555555555--|
E|--------------------------------------------------------------------|

-Chorus-

-Outro-

G|--------44444444--------------------------44444444------------------|
D|55555555--------------------------55555555--------------------------|
A|-----------------5555555555555555------------------5555555555555555-|
E|--------------------------------------------------------------------|

G|--------44444444----------------------------------------------------|
D|55555555--------------------------55555555555555555r----------------|
A|-----------------5555555555555555-----------------------------------|
E|--------------------------------------------------------------------|




Suggest correction
comments
print report bad tab
5 comments total. Showing first comments.
0 reply
Thunderbird_Fan 83 Jul 08, 2009 12:36 AM

im pretty sure jared plays it like this

G|--------------------------------------------------
D|--------------------------------------------------
A|-1010101010101010101010101010-9-7-5555555555555555
E|--------------------------------------------------
notice the 9 and 7 instead of just 9

otherwise pretty good tab.
For the intro i cant really hear in in the recording but it is definitely in the live version

0 reply
stella the fell 10 Oct 17, 2009 12:47 PM

ten out of ten thunderbird fan i reckon your way is the right one

0 reply
jfuginay 10 Jul 12, 2011 11:06 PM

For me, it's easier to play 0 on the A string during those repeated notes, and I hear a 4-2-0 on the A string like so:

G|---------------------------------------------------------------------|
D|555555555555542-0000000000000000-5555555555555-420000000000000000----|
A|---------------------------------------------------------------------|
E|---------------------------------------------------------------------|

G|---------------------------------------------------------------------|
D|555555555555542-0000000000000000-5555555555555-420000000000000000----|
A|---------------------------------------------------------------------|
E|---------------------------------------------------------------------|

guest
You may want to rate the tab now too:
select rating
Wanna post a correction for this tab? Suggest correction