Oops, an error
Loading. Please wait.

Camaro Bass Tab

version 1
version 1

Whole song

Interactive

10,049 views 3 this week
2 commentsread comments
1 2 3 4 5
x 6
add to favorites
launch autoscroll
font size
0
reset
guitar tuner
Autoscroll
slow
fast
+/-
esc
set tempo
stop
Help us to improve Ultimate-Guitar.com Take our survey!
×
Author
Difficulty
novice
intro

G-------------------------|
D----7-5-7-5-/10-7-10-12--|
A--00-0-0-0-0---0-0-------|
E-------------------------|

verse

G---/9-7-/12-11-9-7-4-6--|
D--7---------------------|
A-0(let ring)------------|
E------------------------|

bridge

G---12---12-------11---11-------9---9-------9---9-----|
D-14---14---14--12---12---12--11--11--11--11--11--11--|
A-----------------------------------------------------|
E-----------------------------------------------------|
Suggest correction
comments
print report bad tab
2 comments total.
0 reply
brewstercraven 10 Jul 11, 2008 03:51 AM

i find it is easier and less crowded to drop the 2nd D in the verse, so

G---/9-7-/12-11-9-4-6--|
D--7-------------------|
A-0(let ring)----------|
E----------------------|

would be what you play. its probs not right but sounds better to my ear. other than that small thing great tab!

0 reply
BlocPartyFreak 186 Sep 22, 2009 09:08 PM

I play the verse like this(sounds cooler):

G----9--7-/12-11-9-7-4-6-|
D--7---0--0--0--0-0-0--0-|
A-0----------------------|
E------------------------|

And what's that bit at 2:33? You left that out.

guest
You may want to rate the tab now too:
select rating
Wanna post a correction for this tab? Suggest correction