Oops, an error
Loading. Please wait.

Camaro Tab

version 1
version 1

Whole song

Interactive

6,432 views 1 this week
5 commentsread comments
1 2 3 4 5
x 4
add to favorites
launch autoscroll
font size
0
reset
how to read this tab
guitar tuner
Autoscroll
slow
fast
+/-
esc
set tempo
stop
Help us to improve Ultimate-Guitar.com Take our survey!
×
Author
Difficulty
novice
----------------------------------------------------------------------------
                             Camaro - Kings of leon
----------------------------------------------------------------------------
Tabbed by:alexmascart

Tuning: standard ( i think!)
I saw nobody else had tabbed this so i thought i would have a go!

e|----------------|
B|----------------|
G|----------------|
D|--7-7-7-7-------| x 4
A|--7-7-7-7-------|
E|--5-5-5-5-------|

let ring...
e|-----------------|
B|-----------------|
G|-----------------|just before verse. "she looks so cool in her new..."
D|------7----------|
A|------7----------|
E|--.---5----------|

This is the wicked solo after the verse.
e|----14b-12----------------14-12------------|
B|-----------14-12----------------14---------|
G|------------------14----------------14-----| x ? (i cant remember!)
D|-------------------------------------------|
A|-------------------------------------------|
E|-------------------------------------------|

After the second verse play this:

e|-14b-12----------14-12----------------------------------------|
b|-------14-12----------14----------------------------14-12-----|
g|-------------14----------14-12h14-12h14-12h14-12h14-----------|
d|--------------------------------------------------------------|
a|--------------------------------------------------------------|
e|--------------------------------------------------------------|

e|---------------------------14-12-------|
b|---------------------------------------|
g|--12h14-12h14-12h14-12h14--------------|
d|---------------------------------------|
a|---------------------------------------|
e|---------------------------------------|

This is all i know but its pretty good!
Suggest correction
comments
print report bad tab
5 comments total. Showing first comments.
+1 reply
antroolez 920 May 17, 2007 06:03 PM

not bad, except i think the riff is:

e|----14b-12----------------14---12-------------|
B|-----------14---------------------14----------|
G|---------------14--12-----------------14------|
D|----------------------------------------------|
A|----------------------------------------------|
E|----------------------------------------------|

think thts wt i mean i dnt have a guitar handy

0 reply
NoelGallagher01 10 Jan 09, 2008 01:46 PM

cool man! i play this for
riff

e|----14b-12------------14-12-------------|
B|-----------14---------------14----------|
G|---------------14---
-----------14-12----|
D|----------------------------------------|
A|----------------------------------------|
E|-----
-----------------------------------|

then

e|----14b-12-----------14-12--------------|
B|----------14-------------
--14-14b-------|
G|--------------14------------------12----|
D|----------------------------------------|
A|----------
------------------------------|
E|----------------------------------------|

*****

0 reply
NoelGallagher01 10 Jan 09, 2008 01:48 PM

wow that got totally messed up lol ignore that last comment

guest
You may want to rate the tab now too:
select rating
Wanna post a correction for this tab? Suggest correction