Oops, an error
Loading. Please wait.

Camaro Tab

version 2
version 2

Whole song

1,799 views 1 this week
no commentswrite comment
1 2 3 4 5
worth learning
x 2
add to favorites
launch autoscroll
font size
0
reset
how to read this tab
guitar tuner
Tab Pro tools
  • play this tab
  • loop segment
  • change instrument
  • show fretboard
  • metronome
Autoscroll
slow
fast
+/-
esc
set tempo
stop
Contributor
----------------------------------------------------------------------------
                             Camaro - Kings of leon
----------------------------------------------------------------------------
Tabbed by: thetoolman

Tuning: Standard
My interpretation of this great song by the Kings of Leon

     PM all
e|----------------|
B|----------------|
G|----------------|
D|--7-7-7-7-------|X 4
A|--7-7-7-7-------|
E|--5-5-5-5-------|

e|----------------|
B|----------------|
G|----------------|
D|--7-------------| Hold before "She looks so cool..."
A|--7-------------|
E|--5-------------|

Next bit A kind of semi-solo

e|----14b-12----------------14-12--------------|
B|-----------14-12----------------14-----------|
G|------------------14------------------14-12--|X 3
D|---------------------------------------------|
A|---------------------------------------------|
E|---------------------------------------------|

e|----14b-12----------------14-12--------------|
B|-----------14-12----------------14h15--------|
G|------------------14------------------14-12--|
D|---------------------------------------------|
A|---------------------------------------------|
E|---------------------------------------------|
    PM all
e|----------------|
B|----------------|
G|----------------|
D|--7-7-7-7-------| x 4 Not to sure if this is here u can play it quietly  
A|--7-7-7-7-------|     if you want
E|--5-5-5-5-------|

e|----14b-12----------------14-12--------------|
B|-----------14-12----------------14-----------|
G|------------------14------------------14-12--|X 3
D|---------------------------------------------|
A|---------------------------------------------|
E|---------------------------------------------|

e|---14b-12----------------14-12-------------------------------------------|
B|----------14-12----------------14h15--------------------------------14-12|
G|-----------------14------------------14-12--12h14-12h14-12h14-12h14------|
D|-------------------------------------------------------------------------|
A|-------------------------------------------------------------------------|
E|-------------------------------------------------------------------------|

e|---------------------------12-14-------|
b|---------------------------------------|
g|--12h14-12h14-12h14-12h14--------------|
d|---------------------------------------|
a|---------------------------------------|
e|---------------------------------------|

e|----------------------------14-16------|
b|--12h14-12h14-12h14-12h14--------------|
g|---------------------------------------|
d|---------------------------------------|
a|---------------------------------------|
e|---------------------------------------|

e|---------------------------12-14-------|
b|---------------------------------------|
g|--12h14-12h14-12h14-12h14--------------|
d|---------------------------------------|
a|---------------------------------------|
e|---------------------------------------|

(Bass part only)

      ***

e|----14b-12----------------14-12--------------|
B|-----------14-12----------------14-----------|
G|------------------14------------------14-12--|
D|---------------------------------------------|
A|---------------------------------------------|
E|---------------------------------------------|

e|----14b-12----------------14-12--------------|
B|-----------14-12----------------14h15--------|
G|------------------14------------------14-12--|
D|---------------------------------------------|
A|---------------------------------------------|
E|---------------------------------------------|

    PM all
e|----------------|
B|----------------|
G|----------------|
D|--7-7-7-7-------| Find your own timing
A|--7-7-7-7-------|
E|--5-5-5-5-------|

And for the end let ring...
e|----------------|
B|----------------|
G|--7-7-----------|
D|--7-7-----------|
A|--5-5-----------|
E|----------------|
comments
We did not receive enough feedback on this tab! Please rate:
print report bad tab
1 2 3 4 5
I want to post or [tab]
guest
You may want to rate the tab now too:
select rating
Please do not post tabs as comments. Select "correction" instead!