Oops, an error
Loading. Please wait.

Camaro Tab

version 3
version 3

Whole song

Interactive

17,945 views 9 this week
3 commentsread comments
1 2 3 4 5
x 5
add to favorites
launch autoscroll
font size
0
reset
how to read this tab
guitar tuner
Autoscroll
slow
fast
+/-
esc
set tempo
stop
Help us to improve Ultimate-Guitar.com Take our survey!
×
Author
Difficulty
novice
                        Camaro by Kings Of Leon
                    From The Album Because Of The Times

Tabbed by Adam Skirving aka Skirvy http://profile.ultimate-guitar.com/Skirvy/

Email: adam.s09@hotmail.com

The song is pretty easy, i managed to tab the whole thing from one listen. 


Tuning = Standard Tuning



Bass Intro


Guitar 1 0:19-0:41
|-------------------|
|-------------------|
|-------------------|  X12
|-------------------|
|-------------------|
|-5-5-5-5-5-5-5-5-5-|

Guitar 2  0:28-0:41
|-------------------------|
|---2v~---2v~---2v~---2v~-|
|2v~---2v~---2v~---2v~----|   X2
|-------------------------|
|-------------------------|
|-------------------------|


Verse


Guitar 1 + 2 0:41-0:55
|-----------------------------|
|-----------------------------|
|-----------------------------|   X1
|-----7~-----7~-----7~-----7~-|
|-----7~-----7~-----7~-----7~-|
|-----5~-----5~-----5~-----5~-|


Riff


Guitar 1 0:55-1:10                X3                                     X1
|15b17r15-12------------------------¦15b17r15-12---------------------------|
|-----------12v~---15b17r15-14------¦-----------12v~--15b7r15-14-14b15r14--|
|---------------12-------------14-12¦---------------12-------------------12|
|-----------------------------------¦--------------------------------------|
|-----------------------------------¦--------------------------------------|
|-----------------------------------¦--------------------------------------|


Guitar 2 0:55-1:10
|-------------------------|
|---2v~---2v~---2v~---2v~-|
|2v~---2v~---2v~---2v~----|   X2
|-------------------------|
|-------------------------|
|-------------------------|


Verse


Guitar 1 + 2 1:10-1:23
|-----------------------------|
|-----------------------------|
|-----------------------------|   X1
|-----7~-----7~-----7~-----7~-|
|-----7~-----7~-----7~-----7~-|
|-----5~-----5~-----5~-----5~-|


Riff


Guitar 1 1:23-1:36                X3                                     X1
|15b17r15-12------------------------¦15b17r15-12---------------------------|
|-----------12v~---15b17r15-14------¦-----------12v~--15b7r15-14-14b15r14--|
|---------------12-------------14-12¦---------------12-------------------12|
|-----------------------------------¦--------------------------------------|
|-----------------------------------¦--------------------------------------|
|-----------------------------------¦--------------------------------------|

Guitar 2 1:23-1:36
|-------------------------|
|---2v~---2v~---2v~---2v~-|
|2v~---2v~---2v~---2v~----|   X2
|-------------------------|
|-------------------------|
|-------------------------|


Solo 


Guitar 1 1:37-1:51
|-------------------------------------------------------¦
|-------------------------------------------------------¦
|-14p12-14--14p12-14--14p12-14--14p12-14--14p12-14p12---¦
|-------------------------------------------------------¦
|-------------------------------------------------------¦
|-------------------------------------------------------¦

|-------------------------------------------------------¦
|-----------------------------------------15b17r15-14---¦
|-14p12-14--14p12-14--14p12-14--14p12-14-------------14-¦
|-------------------------------------------------------¦
|-------------------------------------------------------¦
|-------------------------------------------------------¦

|-------------------------------------------------------¦
|-------------------------------------------------------¦
|-14p12-14--14p12-14--14p12-14--14p12-14--14p12-14p12---¦
|-------------------------------------------------------¦
|-------------------------------------------------------¦
|-------------------------------------------------------¦

|-------------------------------------------------------¦
|-----------------------------------------15b17r15-14---¦
|-14p12-14--14p12-14--14p12-14--14p12-14-------------14-¦
|-------------------------------------------------------¦
|-------------------------------------------------------¦
|-------------------------------------------------------¦

|-------------------------------------------------------¦
|-15p13-15--15p13-15--15p13-15--15p13-15--15p13-15p13---¦
|-------------------------------------------------------¦
|-------------------------------------------------------¦
|-------------------------------------------------------¦
|-------------------------------------------------------¦

|-----------------------------------------15b17-15------¦
|-15p13-15--15p13-15--15p13-15--15p13-15-----------14---¦
|-------------------------------------------------------¦
|-------------------------------------------------------¦
|-------------------------------------------------------¦
|-------------------------------------------------------¦

|-------------------------------------------------------¦
|-------------------------------------------------------¦
|-14p12-14--14p12-14--14p12-14--14p12-14--14p12-14p12---¦
|-------------------------------------------------------¦
|-------------------------------------------------------¦
|-------------------------------------------------------¦

|------------------------------------------------------------¦
|-----------------------------------------15b17r15-14-14b17--¦
|-14p12-14--14p12-14--14p12-14--14p12-14---------------------¦
|------------------------------------------------------------¦
|------------------------------------------------------------¦
|------------------------------------------------------------¦


Guitar 2 1:37-1:51
|-----------------------------|
|-----------------------------|
|-----------------------------|   X1
|-----7~-----7~-----7~-----7~-|
|-----7~-----7~-----7~-----7~-|
|-----5~-----5~-----5~-----5~-|


Bass Interlude 1:52-2:33


Riff


Guitar 1 2:33-2:43                                                  
|15b17r15-12------------------------¦15b17r15-12---------------------------|
|-----------12v~---15b17r15-14------¦-----------12v~--15b7r15-14-14b15r14--|
|---------------12-------------14-12¦---------------12-------------------12|
|-----------------------------------¦--------------------------------------|
|-----------------------------------¦--------------------------------------|
|-----------------------------------¦--------------------------------------|


Verse


Guitar 1 + 2 2:43-2:56
|-----------------------------|
|-----------------------------|
|-----------------------------|   X1
|-----7~-----7~-----7~-----7~-|
|-----7~-----7~-----7~-----7~-|
|-----5~-----5~-----5~-----5~-|


Outro 2:56-3:07(End)


|-----------------------------|
|-----------------------------|
|-----------------------------|   X1    END.
|-----5~-----5~----7-7--------|
|-----5~-----5~----7-7--------|
|-----3~-----3~----5-5--------|



Lyrics

She look so cool in her new Camaro
It's black as coal and it goes boy, go go go
I brought my fight next to her Camaro
And when I fire on a smile then she blows, she blows

I'm makin eyes through my sharp sunglasses
She's such a brat now I'm packin her cigarettes
I guess I'll take off these great sunglasses
It makes her look me in the eye before she's taken away

So cool in her new Camaro
It's black as coal and it goes boy, go go go
She looks so cool in that new Camaro
So black as coal and it goes, no it go go go

She look so cool in her new Camaro
It's black as coal and it goes boy, go go go
I brought my fight next to her Camaro
And when I fire on a smile then she blows, she blows
She blows, she blows

| /  slide up
| \  slide down
| h  hammer-on
| p  pull-off
| ~  vibrato
| +  harmonic
| x  Mute note
============================================================================
Suggest correction
comments
print report bad tab
3 comments total.
0 reply
lodgey 10 Jan 18, 2009 06:33 PM

I'd say that the riff is more like:

|14b16r14-12------------------------¦
|-----------14v~---15b17r15-13------¦
|---------------14-------------14-12¦
|-----------------------------------¦
|-----------------------------------¦
|-----------------------------------¦

0 reply
Skirvy 142 Oct 26, 2009 12:16 PM

these were the ****ing days!

0 reply
samd23 87 Feb 15, 2010 06:46 AM

lodgeys right and so is skirvy.

guest
You may want to rate the tab now too:
select rating
Wanna post a correction for this tab? Suggest correction