Oops, an error
Loading. Please wait.

Celebration Bass Tab

919 views 1 this week
no commentswrite comment
1 2 3 4 5
3 more votes to show rating
add to favorites
launch autoscroll
font size
0
reset
guitar tuner
Autoscroll
slow
fast
+/-
esc
set tempo
stop
Help us to improve Ultimate-Guitar.com Take our survey!
×
Author
Difficulty
intermediate
What I've figured out so far...

Celebration - Kings of Leon
Come Around Sundown B-Side

G|-----------------------------------------|
D|------------77----------------77---------|
A|-----7/10--------------7/10--------------|
E|--0-------------0-0-0--------------------|

Variation

G|-----------------------------------------|
D|-----------------------------------------|
A|-----7/10--7-7-----------7/10--7-7-------|
E|--0-----------------0-0-0----------------|
Suggest correction
Give kudos to tab author, rate the tab!
1 2 3 4 5
comments
print report bad tab
guest
You may want to rate the tab now too:
select rating
Wanna post a correction for this tab? Suggest correction