Oops, an error
Loading. Please wait.

Charmer Tab

version 1
version 1

Whole song

Interactive

45,039 views 12 this week
5 commentsread comments
1 2 3 4 5
accurate
x 6
add to favorites
launch autoscroll
font size
0
reset
how to read this tab
guitar tuner
Autoscroll
slow
fast
+/-
esc
set tempo
stop
Help us to improve Ultimate-Guitar.com Take our survey!
×
Contributor
Charmer

INTRO/VERSE
Bass
G|---------------------|
D|---------------------|
A|------2222-----------|
E|-3333------0000-2222-|

Guitar
e|----------------------------------------------------------|
B|----------------------------------------------------------|
G|----------------------------------------------------------|
D|--------------4---------4-4-------------------------------|
A|--------2-4-5---5---2---4-4-------------------------------|
E|--0-2-3-----------3---0-2-2-------------------------------|

CHORUS
Rhythm
e|---------------------------------------------|
B|---------------------------------------------|
G|------4444-----------------------------------|
D|-5555-4444-2222-4444-------------------------|
A|-5555-2222-2222-4444-------------------------|
E|-3333------0000-2222-------------------------|

Verse Harmonics
e|-------------|
B|--<7>---<7>--|
G|-------------|
D|-------------|
A|-------------|
E|-------------|

CHORUS
Lead Comes In
e|----------------------------------------------------------|
B|----8-8-8-8-8-8-8-8-8-8-8-8-8-8-8-8-----------------------|
G|-----7-7-7-7-7-7-7-7-7-7-7-7-7-7-7-7----------------------|
D|----------------------------------------------------------|
A|----------------------------------------------------------|
E|----------------------------------------------------------|

BRIDGE
Bass
G|-------------|
D|-------------| 
A|-7777-33-2---|
E|-----------3-| 

Rhythm
e|----7-7-5-------------------------------------------------|
B|----8-8-8-8-----------------------------------------------|
G|----------7-----------------------------------------------|
D|----------------------------------------------------------|
A|----------------------------------------------------------|
E|----------------------------------------------------------|

Lead
e|----------------------------------------------------------|
B|---8b-8b-8b-8b-8b-8b-8b-8b-8b-8b-8b-8b-8b-8b-8b-8b--------|
G|---7b-7b-7b-7b-7b-7b-7b-7b-7b-7b-7b-7b-7b-7b-7b-7b--------|
D|----------------------------------------------------------|
A|----------------------------------------------------------|
E|----------------------------------------------------------|

e|---------------------------------------7-----7-----10-----|
B|---------------------------8b-8b-8b-8b--10-8--10-8--------|
G|---7b-7b-7b-7b-7b-7b-7b-7b--------------------------------|
D|----------------------------------------------------------|
A|----------------------------------------------------------|
E|----------------------------------------------------------|

e|---------------------------------------7-----7-----11-----|
B|---------------------------8b-8b-8b-8b--10-8--10-8--------|
G|---7b-7b-7b-7b-7b-7b-7b-7b--------------------------------|
D|----------------------------------------------------------|
A|----------------------------------------------------------|
E|----------------------------------------------------------|

e|--------7-7-------10-10-----------------------------------|
B|----8-8-----10-10-----------------------------------------|
G|-----7-7-7-7--7--7--7--7----------------------------------|
D|----------------------------------------------------------|
A|----------------------------------------------------------|
E|----------------------------------------------------------|
comments
print report bad tab
5 comments total. Showing first comments.
0 reply
rhashr 105 wrote on May 25 2007, 09:02 am

Guitar
the riff goes:

e|----------------------------------------------------------|
B|----------------------------------------------------------|
G|----------------------------------------------------------|
D|--------------4-------------------------------------------|
A|--------2-4-5---------------------------------------------|
E|--0-2-3---------0-0-2-2-3---3-----------------------------|

0 reply
###!!jack!!### 239 wrote on June 12 2007, 12:09 pm

fairly good tab m8!

0 reply
touchdown_boy 491 wrote on June 18 2007, 04:47 am

here's an amendment to the solo
e|-----------------------------------------10-------10-------15-
B|-8b-8b-8b-8b-8b-8b-8b-8b-12b-12b-12b-12b----12-10----12-10----
G|--------------------------------------------------------------
D|--------------------------------------------------------------
A|--------------------------------------------------------------
E|--------------------------------------------------------------

I want to post or [tab]
guest
You may want to rate the tab now too:
select rating
Please do not post tabs as comments. Select "correction" instead!