Oops, an error
Loading. Please wait.

Charmer Tab

version 2
version 2

Whole song

Interactive

12,710 views 1 this week
2 commentsread comments
1 2 3 4 5
please rate
add to favorites
launch autoscroll
font size
0
reset
how to read this tab
guitar tuner
Autoscroll
slow
fast
+/-
esc
set tempo
stop
Help us to improve Ultimate-Guitar.com Take our survey!
×
Author
Difficulty
intermediate
This is Track 2 fomr Kings of Leon's new album, Becasue of the Times. It's by no means 
best song on the album, but it is fairly easy to make it sound effective, and I love the 
bass and Nathan's drums in it.

Intro:
Bass
G:-------------------------------------------------------------|
D:-------------------------------------------------------------| Jared plays this throughout the song,
A:-------2 2 2 2----------------- except  for the bridge/solo--|
E:3 3 3 3-------0 0 0 0 2 2 2 2 3------------------------------|


Guitar 1 (Matthew) - Riff A
- there is a pause on the first note of this riff.
E:----------------|
B:----------------|
G:----------------|
D:------24--------|
A:----23----------|
E:023------002233-|

Guitar 2 (Caleb)
To begin with, he doesn't play anything untill this (he could play Riff B plam muted 
- up to you)

Guitars 1 & 2 - Riff B
E:-------------------------|     This riff starts off being slightly palm muted,
B:-------------------------|     but which becomes heavier - by the third time, it
G:-----4444----------------|  x4 is completly open.
D:5555 4444 2222 4444
A:5555 2222 2222 4444
E:3333------0000 2222

Guitar 1 - Riff C
E:-----15----------|
B:-----------------| played with with tremelo or picked just once.
G:-----------------|
D:-----------------| x2
A:-----------------|
E:-----------------|

Guitar 2 - Riff D
E:-------------------------------|
B:--888888888888888888888-20-----|
G:---77777777777777777777--------|
D:-------------------------------|
A:-------------------------------|
E:-------------------------------|

Bass - Bridge
G:----------    G:---------|
D:---------- or D:22-------|
A:77/3323--    A:---3323---| x2
E:--------3-    E:-------3-|

G:----------------|
D:----------------|
A:999---77/3323---| x5 there are loads of variations on this with little fills
E:-------------3--|   so just play whatever suits - so long as you stay in
                    time.

Guitar 2
E:99 8 7---|
B:88 8 8---|
G:---------|
D:---------| x5. this is played untill Jared finishes the bridge, after he
A:---------|     has played his bit twice.
E:---------|

Guitar 1 (Solo)
E:-----------------------------------------------------------------------|
B:----7777777777777777-x2----Mat also puts in the occasional bend--------|
G:--------------------  12 12 12 12 12 12 12 12 -------------------------|
D:--------------------  12 12 12 12 12 12 12 12 -------------------------|
A:-----------------------------------------------------------------------|
E:-----------------------------------------------------------------------|

E:-------------------15-----------------------------------------------------|
B:15----15----15------------------------------------------------------------|
G:--14----14----14 -----12 12 12 12 12 12 12 12 ----------------------------|
D:----17----17----17 ---12 12 12 12 12 12 12 12 ----------------------------|
A:--------------------------------------------------------------------------|
E:--------------------------------------------------------------------------|

E:--------------15-----------------15-|
B:15----15--------------15 15---------|
G:--14----14 14--------------14 14----|
D:----17-----------17 17--------------|
A:------------------------------------|
E:------------------------------------|

It then goes back to the main riff for the outro.
Suggest correction
Give kudos to tab author, rate the tab!
1 2 3 4 5
comments
print report bad tab
2 comments total.
0 reply
metal_head_andy 10 wrote on January 16 2009, 07:46 am

the intro guitar riff is slitly wrong its
E:-----------------|
B:-----------------|
G:-----------------|
D:------245--------|
A:----23-----------|
E:023-------002233-|

thats the way i play it and it sound much better

0 reply
CarbineMusic 10 wrote on June 9 2013, 10:05 am

Intro Riff how I play it:
E:----------------|
B:----------------|
G:----------------|
D:-------4--------|
A:----245---------|
E:023------002233-|

guest
You may want to rate the tab now too:
select rating
Wanna post a correction for this tab? Suggest correction