Oops, an error
Loading. Please wait.

Charmer tab

version 3
version 3

Whole song

Interactive

93,409 views 33 this week
14 commentsread comments
1 2 3 4 5
x 29
add to favorites
×
Save as Personal and add changes to this tab that will be seen only by you. Learn more ›
×
You can save this tab as Personal to edit and correct it or add notes. All changes will be seen only by you. Learn more »
launch autoscroll
font size
0
reset
how to read this tab
guitar tuner
edit
Autoscroll
slow
fast
+/-
esc
set tempo
stop
Author
song : Charmer
tuning - standard (eadgbe)
<>=harmonic
b=bend
p=pull off


Intro (bass)
e|------------------------------|
b|------------------------------|
g|------------------------------|
d|------------------------------|
a|--------2-2-2-2---------------|
E|-3-3-3-3-------0-0-0-0-2-2-2-2|

Intro (gtr I)
e|-----------------------|
b|-----------------------|
g|-----------------------|
d|-----------4----------5|
a|------2-4-5-----------5|
E|-0-2-3------0-0-2-2-3-3|


verse

Waw, she's always looking at me...
e|--------------------------------|
b|--------------------------------|
g|---------4-4-4-4----------------|
d|-5-5-5-5-4-4-4-4-2-2-2-2-4-4-4-4|
a|-5-5-5-5-2-2-2-2-2-2-2-2-4-4-4-4|
E|-3-3-3-3---------0-0-0-0-2-2-2-2|


verse 2 (gtr II)

e|-----------|    e|-----14-------|
b|---<7>-----|    b|--------------|
g|-----------|    g|--------------|
d|-----------| or d|--------------|
a|-----------|    a|--------------|
e|-----------|    E|--------------|


verse 2 gtr II

Waw, she's always looking at me..
e|--7-7-7-7-7-|
b|-8-8-8-8-8--|
g|------------|
d|------------|
a|------------|
e|------------|

bridge (gtr I)
e|--10-10--8-8-8---|
b|--12-12-10-7-7---|
g|-----------------|
d|-----------------|
a|-----------------|
e|-----------------|

guitar (II)
e|---------|
b|--12-----|
g|--12-----| - just keep playing that until the solo
d|---------|
a|---------|
e|---------|

solo
e|---------------------------------------------------------|
b|--------------------------------------12p0-0-12p0-0-12p0-|
g|12p0-0-12p0-0-12p0-12p0-0-12p0-0-12p0--------------------|
d|---------------------------------------------------------|
a|---------------------------------------------------------|
e|---------------------------------------------------------|

----------------15-|
-15------15--12----|
----14-12--14------|
-------------------|
-------------------|
-------------------|

e|---------------------------------------------------------|
b|--------------------------------------12p0-0-12p0-0-12p0-|
g|12p0-0-12p0-0-12p0-12p0-0-12p0-0-12p0--------------------|
d|---------------------------------------------------------|
a|---------------------------------------------------------|
e|---------------------------------------------------------|

----------------15-|
-15------15--12----|
----14-12--14------|
-------------------|
-------------------|
-------------------|

e|---------------------------------------|
b|----------12p0-12p0---------15p0-15p0--|
g|-12p0-12p0---------14p0-14p0-----------|
d|---------------------------------------|
a|---------------------------------------|
e|---------------------------------------|

thats all folks...

            
            
Suggest correction
Creating personal tab
Creating personal tab
You can edit any tab online and save it as your Personal.

You can edit, replace or remove any tab part or add personal notes – all changes will be seen only by you.

Personal tabs can be accessed anytime from any device, even offline.
Learn more »
comments
print report bad tab
14 comments total. Showing first comments.
0 reply
rhashr 93 Oct 13, 2007 05:38 AM

Good job, first person to get the riff right. Thought i was the only one

0 reply
Dead Marshal 93 Nov 05, 2007 02:22 PM

awesome tab, best one of all the versions on ug, but isn't the gtr intro:

Intro (gtr I)
e|----------------------------|
b|----------------------------|
g|-------------6-4------------|
d|-------4-6-7-4-2-----4-4-5-5|
a|-2-4-5-2-4-5-----2-2-4-4-5-5|
E|-0-2-3-----------0-0-2-2-3-3|

the fifths might not be there, but it sounds like they are. and the 2 definitely is.

+2 reply
stewartcz098 91 Nov 30, 2007 09:34 AM

i think the guitar into is played with a Digitech Whammy. On the 1 octave down harmony setting. I have one myself and
tried it and it sounded excact.

guest
You may want to rate the tab now too:
select rating
Wanna post a correction for this tab? Suggest correction