Oops, an error
Loading. Please wait.

Closer Tab

version 2
version 2

Whole song

Interactive

8,988 views 105 this week
no commentswrite comment
1 2 3 4 5
1 last vote to show rating
add to favorites
launch autoscroll
font size
0
reset
how to read this tab
guitar tuner
Autoscroll
slow
fast
+/-
esc
set tempo
stop
-------------------------------------------------------------------------------
                             CLOSER - Kings Of Leon
-------------------------------------------------------------------------------
Tabbed by: Michaeltb126
Email:

Tuning: Standard

There is a similar tab for this song, but this tab is easier to play and sounds the 
not, better!

Method 1 - Use this method if you have a device which allows for the "wahwah" and 
effect. Allow the effects take place after hitting each note. Repeat the riff throughout the 
and verse.

e|---------------7-----------------10-----------------9----------------------|
B|----0-----------------3------------------2---------------------------------|
G|---------------------------------------------------------------------------|
D|---------------------------------------------------------------------------|
A|---------------------------------------------------------------------------|
E|---------------------------------------------------------------------------|

Method 2 - Use this if you don't have a special effects pedal. Repeat the riff 
the intro and verse.

e|--------------7-7-7-----------10-10-10-----------9-9-9---------------------|
B|----0-0-0-0-0-------3-3-3-3-3----------2-2-2-2-2---------------------------|
G|---------------------------------------------------------------------------|
D|---------------------------------------------------------------------------|
A|---------------------------------------------------------------------------|
E|---------------------------------------------------------------------------|

| /  slide up
| \  slide down
| h  hammer-on
| p  pull-off
| ~  vibrato
| +  harmonic
| x  Mute note
===============================================================================
Suggest correction
Give kudos to tab author, rate the tab!
1 2 3 4 5
comments
print report bad tab
guest
You may want to rate the tab now too:
select rating
Wanna post a correction for this tab? Suggest correction