Oops, an error
Loading. Please wait.
We have an official Closer tab made by UG professional guitarists. Check out the tab »
×
38,045 views 48 this week
3 commentsread comments
1 2 3 4 5
x 9
add to favorites
×
Save as Personal and add changes to this tab that will be seen only by you. Learn more ›
×
You can save this tab as Personal to edit and correct it or add notes. All changes will be seen only by you. Learn more »
launch autoscroll
font size
0
reset
how to read this tab
guitar tuner
edit
Autoscroll
slow
fast
+/-
esc
set tempo
stop
Author
(this part is originally played by bass, but sounds decent on guitar)
e|----------------------------------|
B|-------12----------15----------14-| 3x \
G|----------------------------------|       changes to 4x x 4x when
D|-9----------12----------11--------| 5x /  verse begins though
A|----------------------------------|
E|----------------------------------|

(matthew doesnt "play" this part, he does something with his pickup,
watch any live video if you dont know what i mean)
...(but i guess it could be played like this)
e|------------------|
B|-12b14~~~~~~~~r12-|
G|------------------|
D|------------------|
A|------------------|
E|------------------|

then caleb comes in and plays this throughout the song:
   Bm              D                     A
e|------------------------------------------------------|
B|------------------------------------------------------|
G|--------------------------11-----------------6--------|
D|-------9------9--------12----------12------7--------7-|
A|---9--------9-------12----------12-------7--------7---|
E|-7---7----7------10----------10--------5--------5-----|

on the second and third verse matthew plays:
e|-----------------------------------------------|
B|-10-(16x)---5-(6x)---3-(6x)---5-(4x)---2-(16x)-|
G|-----------------------------------------------|
D|-----------------------------------------------|
A|-----------------------------------------------|
E|-----------------------------------------------|

and inbetween the "coming closer-parts" matthew plays this lick:
e|----------------------------------------------------------------------------------------|
B|--------12-------------12--------------15--------------15------------10-----------10----|
G|----11------11-----11------11------14------14------14------14-----9------9-----9------9-|
D|-9-------------(9)-------------12-------------(12)-------------7-----------(7)----------|
A|----------------------------------------------------------------------------------------|
E|----------------------------------------------------------------------------------------|

outro/solo matthew (on record) -- (same as the verse lick):
e|-----------------------------------------------|
B|-10-(16x)---5-(6x)---3-(6x)---5-(4x)---2-(16x)-|
G|-----------------------------------------------|
D|-----------------------------------------------|
A|-----------------------------------------------|
E|-----------------------------------------------|

outro/solo matthew (live):
e|-----------------------------------------|
B|-10-10-10-8-10b~-5-5-5-3-5b~-3h5p3~-3/2~-| \
G|-----------------------------------------|  \ play
D|-----------------------------------------|  / 3x
A|-----------------------------------------| /
E|-----------------------------------------|

e|-------9---------9---------9----------------|
B|-10--------10--------10--------10-------10b-|
G|--------------------------------------------|
D|--------------------------------------------|
A|--------------------------------------------|
E|--------------------------------------------|

b bend
r release
h hammer-on
p pull-off
~ vibrato

            
            
Suggest correction
Creating personal tab
Creating personal tab
You can edit any tab online and save it as your Personal.

You can edit, replace or remove any tab part or add personal notes – all changes will be seen only by you.

Personal tabs can be accessed anytime from any device, even offline.
Learn more »
comments
print report bad tab
3 comments total.
0 reply
captcaos2002 10 Dec 26, 2010 07:30 PM

Well done, the live solo is much funner to play.

0 reply
jashua92 342 Dec 29, 2010 08:33 PM

ye it is :) but i posted this one a while ago and matthew has changes his way of playing that part a little, i might update my tab now that u reminded me
thanks btw

0 reply
captcaos2002 10 Jan 06, 2011 08:41 PM

No prob, let me know if you do I love playing KOL

guest
You may want to rate the tab now too:
select rating
Wanna post a correction for this tab? Suggest correction