Oops, an error
Loading. Please wait.

Cold Desert Tab

version 2
version 2

Solo

Whole song

Interactive

4,584 views 1 this week
no commentswrite comment
1 2 3 4 5
2 more votes to show rating
add to favorites
launch autoscroll
font size
0
reset
how to read this tab
guitar tuner
Autoscroll
slow
fast
+/-
esc
set tempo
stop
Help us to improve Ultimate-Guitar.com Take our survey!
×
Author
Tabbed by: Gary Cunningham
Email:

The Solo And The Main Riff Uses Alot Of Reverb And Moderate Distortion....

Just Play Around With It And Get The Vibrato In And Get A Feel For It.....

Please Rate.........

Tuning: Standard EADGBe

Solo:

e|---BU-----BD-----BU-----BD------BU----BD------BU------BD-----------------|
B|--10(12)-(10)---10(12)-(10)----10(12)(10)-----10(12)-(10)----------------|
G|----------------------------7~------------6~--------------4~-------------|
D|-------------------------------------------------------------------------|
A|-------------------------------------------------------------------------|
E|-------------------------------------------------------------------------|

e|----12(14)--(12)--10~-10-10-10-10-12-9-9-9-9-9-10-7-7-7-7-7-9------------|
B|----BU------BD-----------------------------------------------------------|
G|-------------------------------------------------------------------------|
D|-------------------------------------------------------------------------|
A|-------------------------------------------------------------------------|
E|-------------------------------------------------------------------------|

e|---10-10-10-10-10-12-9-9-9-9-9-10-7-7-7-7-7-9----------------------------|
B|-------------------------------------------------------------------------|
G|-------------------------------------------------------------------------|
D|-------------------------------------------------------------------------|
A|-------------------------------------------------------------------------|
E|-------------------------------------------------------------------------|
 
Guitar 2: Main Riff

e|-------------------------------------------------------------------------|
B|-------------------------------------------------------------------------|
G|--/12-11-7--/12-11-4/7~--------------------------------------------------|
D|-------------------------------------------------------------------------|
A|-------------------------------------------------------------------------|
E|-------------------------------------------------------------------------|

BU: Bend Up
BD: Bend Down
~: Vibrato
/: Slide
(): The Note To Bend To

Suggest correction
Give kudos to tab author, rate the tab!
1 2 3 4 5
comments
print report bad tab
guest
You may want to rate the tab now too:
select rating
Wanna post a correction for this tab? Suggest correction