Oops, an error
Loading. Please wait.

Cold Desert Bass Tab

version 3
version 3

Whole song

Interactive

1,430 views 3 this week
no commentswrite comment
1 2 3 4 5
excellent!
x 6
add to favorites
launch autoscroll
font size
0
reset
guitar tuner
Autoscroll
slow
fast
+/-
esc
set tempo
stop
Help us to improve Ultimate-Guitar.com Take our survey!
×
Contributor
Difficulty
Wrennaboy 400
novice
Cold Desert Bass Tab®

x2
G|----7----7----7----7----7----6----7----9----4----4----4----4----4----4----4----4--|
D|--0----0----0----0----0----0----0----0----0----0----0----0----0----0----0----0----|
A|----------------------------------------------------------------------------------|
E|----------------------------------------------------------------------------------|

x2
G|---11---11---11--12--14--12--11--11\---16--16--16--18---19---18---16--18---------|
D|--0----0----0----0----0----0----0----0-----0----0----0----0----0----0----0----0--|
A|---------------------------------------------------------------------------------|
E|---------------------------------------------------------------------------------|

x2
G|----7(x8)----7(x8)----7(x8)----7(x8)-----------|
D|--0(x8)----9(x8)----7(x8)----5(x8)-------------|
A|-----------------------------------------------|
E|-----------------------------------------------|

x2
G|---11---11---11--12--14--12--11--11\---16--16--16--18---19---18---16--18---------|
D|--0----0----0----0----0----0----0----0-----0----0----0----0----0----0----0----0--|
A|---------------------------------------------------------------------------------|
E|---------------------------------------------------------------------------------|

x3
G|----7(x8)----7(x8)----7(x8)----7(x8)-----------|
D|--0(x8)----9(x8)----7(x8)----5(x8)-------------|
A|-----------------------------------------------|
E|-----------------------------------------------|

x2
G|---11---11---11--12--14--12--11--11\---16--16--16--18---19---18---16--18---------|
D|--0----0----0----0----0----0----0----0-----0----0----0----0----0----0----0----0--|
A|---------------------------------------------------------------------------------|
E|---------------------------------------------------------------------------------|

x7
G|----7(x8)----7(x8)----7(x8)----7(x8)-----------|
D|--0(x8)----9(x8)----7(x8)----5(x8)-------------|
A|-----------------------------------------------|
E|-----------------------------------------------|

G|--11(x2)-12-14-12-11(x5)-12-14-12-11(x3)-------------------|
D|-----------------------------------------------------------|
A|-----------------------------------------------------------|
E|-----------------------------------------------------------|

G|--16(x2)-18-19-18-16(x5)-18-19-18-16(x3)-------------------|
D|-----------------------------------------------------------|
A|-----------------------------------------------------------|
E|-----------------------------------------------------------|

G|--11(x2)-12-14-12-11(x5)-12-14-12-11(x3)-------------------|
D|-----------------------------------------------------------|
A|-----------------------------------------------------------|
E|-----------------------------------------------------------|

G|--16-18-19-18-16-19-18-16--------------|
D|---------------------------------------|
A|---------------------------------------|
E|---------------------------------------|

x3
G|---11---11---11--12--14--12--11--11\---16--16--16--18---19---18---16--18---------|
D|--0----0----0----0----0----0----0----0-----0----0----0----0----0----0----0----0--|
A|---------------------------------------------------------------------------------|
E|---------------------------------------------------------------------------------|

G|---11---11---11--12--14--12--11--11\---16--16--16--19---18---16--18---------|
D|--0----0----0----0----0----0----0----0-----0----0----0----0----0----0----0--|
A|----------------------------------------------------------------------------|
E|----------------------------------------------------------------------------|
comments
print report bad tab
I want to post or [tab]
guest
You may want to rate the tab now too:
select rating
Please do not post tabs as comments. Select "correction" instead!