Oops, an error
Loading. Please wait.

Conversation Piece Bass Tab

142 views 3 this week
no commentswrite comment
1 2 3 4 5
2 more votes to show rating
add to favorites
launch autoscroll
font size
0
reset
guitar tuner
Autoscroll
slow
fast
+/-
esc
set tempo
stop
Help us to improve Ultimate-Guitar.com Take our survey!
×
Author
Difficulty
novice
--------------------------------------------------------------------------
                            Artist - Kings Of Leon 
                          *************************
                          Song - Conversation Piece
                         ***************************
                             Album - Walls (2016)
                            **********************
                             Tabbed By - Ayreon77
                            **********************
--------------------------------------------------------------------------
Tuning = Standard             


00:10
INTRO
******
G|--------|---------|---------|---------|------|---------|---------|---------|
D|--------|-----9---|-----9---|-----9---|------|-----9---|-----9---|-----9---|
A|-9--9-9-|-7-7---7-|-7-7---7-|-7-7---7-|-9--9-|-7-7---7-|-7-7---7-|-7-7---7-|
E|--------|---------|---------|---------|------|---------|---------|---------|


G|--------|-------------|-------------|----------|----------|---------|---------|---------|
D|--------|-------13----|-------13----|-----11---|-----11---|-----9---|-----9---|-----9---|
A|-9--9-9-|-11-11----11-|-11-11----11-|-9-9----9-|-9-9----9-|-7-7---7-|-7-7---7-|-7-7---7-|
E|--------|-------------|-------------|----------|----------|---------|---------|---------|


---------------------------
00:32
VERSE 1
********
G|--------|---------|---------|---------|------|---------|---------|---------|
D|--------|-----9---|-----9---|-----9---|------|-----9---|-----9---|-----9---|
A|-9--9-9-|-7-7---7-|-7-7---7-|-7-7---7-|-9--9-|-7-7---7-|-7-7---7-|-7-7---7-|
E|--------|---------|---------|---------|------|---------|---------|---------|


G|--------|-------------|-------------|----------|----------|---------|---------|---------|
D|--------|-------13----|-------13----|-----11---|-----11---|-----9---|-----9---|-----9---|
A|-9--9-9-|-11-11----11-|-11-11----11-|-9-9----9-|-9-9----9-|-7-7---7-|-7-7---7-|-7-7---7-|
E|--------|-------------|-------------|----------|----------|---------|---------|---------|


---------------------------
00:55
VERSE 2
********
G|--------|---------|---------|---------|------|---------|---------|---------|
D|--------|-----9---|-----9---|-----9---|------|-----9---|-----9---|-----9---|
A|-9--9-9-|-7-7---7-|-7-7---7-|-7-7---7-|-9--9-|-7-7---7-|-7-7---7-|-7-7---7-|
E|--------|---------|---------|---------|------|---------|---------|---------|


G|--------|-------------|-------------|-------------|-------------|
D|--------|-------13----|-------13----|-------14----|-------14----|
A|-9--9-9-|-11-11----11-|-11-11----11-|-12-12----12-|-12-12----12-|
E|--------|-------------|-------------|-------------|-------------|


G|----------|----------|---------|---------|---------|
D|-----11---|-----11---|-----9---|-----9---|-----9---|
A|-9-9----9-|-9-9----9-|-7-7---7-|-7-7---7-|-7-7---7-|
E|----------|----------|---------|---------|---------|


---------------------------
01:20
CHORUS
*******
G|--------|-------------|-------------|-------------|-------------|---------|---------|---------|
D|--------|-------13----|-------13----|-------14----|-------14----|-----9---|-----9---|-----9---|
A|-9--9-9-|-11-11----11-|-11-11----11-|-12-12----12-|-12-12----12-|-7-7---7-|-7-7---7-|-7-7---7-|
E|--------|-------------|-------------|-------------|-------------|---------|---------|---------|


G|--------|-------------|-------------|-------------|---------s----|
D|--------|-------13----|-------13----|-------14----|-------14\----|
A|-9--9-9-|-11-11----11-|-11-11----11-|-12-12----12-|-12-12------7-|
E|--------|-------------|-------------|-------------|--------------|


---------------------------
01:43
BREAK
******
G|------|---------|---------|---------|
D|------|-----9---|-----9---|-----9---|
A|-9--9-|-7-7---7-|-7-7---7-|-7-7---7-|
E|------|---------|---------|---------|


---------------------------
01:50
VERSE 3
********
G|--------|---------|---------|---------|------|---------|---------|---------|
D|--------|-----9---|-----9---|-----9---|------|-----9---|-----9---|-----9---|
A|-9--9-9-|-7-7---7-|-7-7---7-|-7-7---7-|-9--9-|-7-7---7-|-7-7---7-|-7-7---7-|
E|--------|---------|---------|---------|------|---------|---------|---------|


G|--------|-------------|-------------|-------------|-------------|
D|--------|-------13----|-------13----|-------14----|-------14----|
A|-9--9-9-|-11-11----11-|-11-11----11-|-12-12----12-|-12-12----12-|
E|--------|-------------|-------------|-------------|-------------|


G|----------|----------|---------|---------|---------|
D|-----11---|-----11---|-----9---|-----9---|-----9---|
A|-9-9----9-|-9-9----9-|-7-7---7-|-7-7---7-|-7-7---7-|
E|----------|----------|---------|---------|---------|


---------------------------
02:14
VERSE 4
********
G|--------|---------|---------|---------|------|---------|---------|---------|
D|--------|-----9---|-----9---|-----9---|------|-----9---|-----9---|-----9---|
A|-9--9-9-|-7-7---7-|-7-7---7-|-7-7---7-|-9--9-|-7-7---7-|-7-7---7-|-7-7---7-|
E|--------|---------|---------|---------|------|---------|---------|---------|


G|--------|-------------|-------------|-------------|-------------|
D|--------|-------13----|-------13----|-------14----|-------14----|
A|-9--9-9-|-11-11----11-|-11-11----11-|-12-12----12-|-12-12----12-|
E|--------|-------------|-------------|-------------|-------------|


G|----------|----------|---------|---------|---------|
D|-----11---|-----11---|-----9---|-----9---|-----9---|
A|-9-9----9-|-9-9----9-|-7-7---7-|-7-7---7-|-7-7---7-|
E|----------|----------|---------|---------|---------|


---------------------------
02:39
BRIDGE
*******
G|---------|--------------|--------------|-----------------|---------------------|
D|-----6-6-|-7-7---7----7-|-9-9--s-------|-----------------|-----13--------13----|
A|-9-9-----|-----7----7---|-----9\---9-9-|----11------11---|-11-----11--11----11-|
E|---------|--------------|--------7-----|-9-----9--9----9-|---------------------|


G|---------------|-----------------|-------------------|-----------------------|
D|---------------|-----------------|-------------------|-------13--------13----|
A|----7------7---|------9------9---|------11------11---|-11-11----11--11----11-|
E|-5----5--5---5-|-7-7----7--7---7-|-9-9-----9--9----9-|-----------------------|


---------------------------
03:03
CHORUS
*******
G|------------------|------------------|------------------|----------------h---------|
D|------------------|------------------|------------------|-------13-----13-14-13----|
A|-----7--------7---|-----9--------9---|-----11------11---|-11-11----11-----------14-|
E|-5-5---5--5-5---5-|-7-7---7--7-7---7-|-9-9----9--9----9-|--------------------------|


G|------------------|--------------------|
D|------------------|-------------s------|
A|-----7--------7---|-----9------9\------|
E|-5-5---5--5-5---5-|-7-7---7--7-----7~~-|


---------------------------
03:30
BREAK
******
G|------|---------|---------|---------|
D|------|-----9---|-----9---|-----9---|
A|-9--9-|-7-7---7-|-7-7---7-|-7-7---7-|
E|------|---------|---------|---------|X5


---------------------------
03:54
CHORUS
*******
G|--------|-------------|-------------|-------------|-------------|---------|---------|---------|
D|--------|-------13----|-------13----|-------14----|-------14----|-----9---|-----9---|-----9---|
A|-9--9-9-|-11-11----11-|-11-11----11-|-12-12----12-|-12-12----12-|-7-7---7-|-7-7---7-|-7-7---7-|
E|--------|-------------|-------------|-------------|-------------|---------|---------|---------|


G|--------|------------------|------------------|------------------|----------------h---------|
D|--------|------------------|------------------|------------------|-------13-----13-14-13----|
A|-9--9-9-|-----7--------7---|-----9--------9---|-----11------11---|-11-11----11-----------14-|
E|--------|-5-5---5--5-5---5-|-7-7---7--7-7---7-|-9-9----9--9----9-|--------------------------|


G|----------------|------------------------|
D|----------------|------------------s-----|
A|-----7------7---|-----9----------10\-----|
E|-5-5---5--5---5-|-7-7---7--7-7-7-----0~~-|


---------------------------
04:27
OUTRO
******
G|------|---------|---------|---------|
D|------|-----9---|-----9---|-----9---|
A|-9--9-|-7-7---7-|-7-7---7-|-7-7---7-|
E|------|---------|---------|---------|X4



ENJOY...........
Suggest correction
Give kudos to tab author, rate the tab!
1 2 3 4 5
comments
print report bad tab
guest
You may want to rate the tab now too:
select rating
Wanna post a correction for this tab? Suggest correction