Oops, an error
Loading. Please wait.

Conversation Piece Bass

640 views 24 this week
no commentswrite comment
1 2 3 4 5
x 4
add to favorites
×
Save as Personal and add changes to this tab that will be seen only by you. Learn more ›
×
You can save this tab as Personal to edit and correct it or add notes. All changes will be seen only by you. Learn more »
save as personal
new!
launch autoscroll
font size
0
reset
guitar tuner
Autoscroll
slow
fast
+/-
esc
set tempo
stop
Author
Difficulty
novice
--------------------------------------------------------------------------
                            Artist - Kings Of Leon 
                          *************************
                          Song - Conversation Piece
                         ***************************
                             Album - Walls (2016)
                            **********************
                             Tabbed By - Ayreon77
                            **********************
--------------------------------------------------------------------------
Tuning = Standard             


00:10
INTRO
******
G|--------|---------|---------|---------|------|---------|---------|---------|
D|--------|-----9---|-----9---|-----9---|------|-----9---|-----9---|-----9---|
A|-9--9-9-|-7-7---7-|-7-7---7-|-7-7---7-|-9--9-|-7-7---7-|-7-7---7-|-7-7---7-|
E|--------|---------|---------|---------|------|---------|---------|---------|


G|--------|-------------|-------------|----------|----------|---------|---------|---------|
D|--------|-------13----|-------13----|-----11---|-----11---|-----9---|-----9---|-----9---|
A|-9--9-9-|-11-11----11-|-11-11----11-|-9-9----9-|-9-9----9-|-7-7---7-|-7-7---7-|-7-7---7-|
E|--------|-------------|-------------|----------|----------|---------|---------|---------|


---------------------------
00:32
VERSE 1
********
G|--------|---------|---------|---------|------|---------|---------|---------|
D|--------|-----9---|-----9---|-----9---|------|-----9---|-----9---|-----9---|
A|-9--9-9-|-7-7---7-|-7-7---7-|-7-7---7-|-9--9-|-7-7---7-|-7-7---7-|-7-7---7-|
E|--------|---------|---------|---------|------|---------|---------|---------|


G|--------|-------------|-------------|----------|----------|---------|---------|---------|
D|--------|-------13----|-------13----|-----11---|-----11---|-----9---|-----9---|-----9---|
A|-9--9-9-|-11-11----11-|-11-11----11-|-9-9----9-|-9-9----9-|-7-7---7-|-7-7---7-|-7-7---7-|
E|--------|-------------|-------------|----------|----------|---------|---------|---------|


---------------------------
00:55
VERSE 2
********
G|--------|---------|---------|---------|------|---------|---------|---------|
D|--------|-----9---|-----9---|-----9---|------|-----9---|-----9---|-----9---|
A|-9--9-9-|-7-7---7-|-7-7---7-|-7-7---7-|-9--9-|-7-7---7-|-7-7---7-|-7-7---7-|
E|--------|---------|---------|---------|------|---------|---------|---------|


G|--------|-------------|-------------|-------------|-------------|
D|--------|-------13----|-------13----|-------14----|-------14----|
A|-9--9-9-|-11-11----11-|-11-11----11-|-12-12----12-|-12-12----12-|
E|--------|-------------|-------------|-------------|-------------|


G|----------|----------|---------|---------|---------|
D|-----11---|-----11---|-----9---|-----9---|-----9---|
A|-9-9----9-|-9-9----9-|-7-7---7-|-7-7---7-|-7-7---7-|
E|----------|----------|---------|---------|---------|


---------------------------
01:20
CHORUS
*******
G|--------|-------------|-------------|-------------|-------------|---------|---------|---------|
D|--------|-------13----|-------13----|-------14----|-------14----|-----9---|-----9---|-----9---|
A|-9--9-9-|-11-11----11-|-11-11----11-|-12-12----12-|-12-12----12-|-7-7---7-|-7-7---7-|-7-7---7-|
E|--------|-------------|-------------|-------------|-------------|---------|---------|---------|


G|--------|-------------|-------------|-------------|---------s-------|
D|--------|-------13----|-------13----|-------14----|-------14\-------|
A|-9--9-9-|-11-11----11-|-11-11----11-|-12-12----12-|-12-12-----------|
E|--------|-------------|-------------|-------------|------------0~~~-|


---------------------------
01:43
BREAK
******
G|------|---------|---------|---------|
D|------|-----9---|-----9---|-----9---|
A|-9--9-|-7-7---7-|-7-7---7-|-7-7---7-|
E|------|---------|---------|---------|


---------------------------
01:50
VERSE 3
********
G|--------|---------|---------|---------|------|---------|---------|---------|
D|--------|-----9---|-----9---|-----9---|------|-----9---|-----9---|-----9---|
A|-9--9-9-|-7-7---7-|-7-7---7-|-7-7---7-|-9--9-|-7-7---7-|-7-7---7-|-7-7---7-|
E|--------|---------|---------|---------|------|---------|---------|---------|


G|--------|-------------|-------------|-------------|-------------|
D|--------|-------13----|-------13----|-------14----|-------14----|
A|-9--9-9-|-11-11----11-|-11-11----11-|-12-12----12-|-12-12----12-|
E|--------|-------------|-------------|-------------|-------------|


G|----------|----------|---------|---------|---------|
D|-----11---|-----11---|-----9---|-----9---|-----9---|
A|-9-9----9-|-9-9----9-|-7-7---7-|-7-7---7-|-7-7---7-|
E|----------|----------|---------|---------|---------|


---------------------------
02:14
VERSE 4
********
G|--------|---------|---------|---------|------|---------|---------|---------|
D|--------|-----9---|-----9---|-----9---|------|-----9---|-----9---|-----9---|
A|-9--9-9-|-7-7---7-|-7-7---7-|-7-7---7-|-9--9-|-7-7---7-|-7-7---7-|-7-7---7-|
E|--------|---------|---------|---------|------|---------|---------|---------|


G|--------|-------------|-------------|-------------|-------------|
D|--------|-------13----|-------13----|-------14----|-------14----|
A|-9--9-9-|-11-11----11-|-11-11----11-|-12-12----12-|-12-12----12-|
E|--------|-------------|-------------|-------------|-------------|


G|----------|----------|---------|---------|---------|
D|-----11---|-----11---|-----9---|-----9---|-----9---|
A|-9-9----9-|-9-9----9-|-7-7---7-|-7-7---7-|-7-7---7-|
E|----------|----------|---------|---------|---------|


---------------------------
02:39
BRIDGE
*******
G|---------|--------------|--------------------|------------------|-----------------------|
D|-----6-6-|-7-7---7----7-|--------------------|------------------|--s----13--------13----|
A|-9-9-----|-----7----7---|-----9--------9-9---|-----11------11---|-9\11-----11--11----11-|
E|---------|--------------|-7-7---7-7--7-----7-|-9-9----9--9----9-|-----------------------|


G|---------------|-----------------|-------------------|-----------------------|
D|---------------|-----------------|-------------------|-------13--------13----|
A|----7------7---|------9------9---|------11------11---|-11-11----11--11----11-|
E|-5----5--5---5-|-7-7----7--7---7-|-9-9-----9--9----9-|-----------------------|


---------------------------
03:03
CHORUS
*******
G|------------------|------------------|------------------|----------------h---------|
D|------------------|------------------|------------------|-------13-----13-14-13----|
A|-----7--------7---|-----9--------9---|-----11------11---|-11-11----11-----------14-|
E|-5-5---5--5-5---5-|-7-7---7--7-7---7-|-9-9----9--9----9-|--------------------------|


G|------------------|--------------------|
D|------------------|-------------s------|
A|-----7--------7---|-----9------9\------|
E|-5-5---5--5-5---5-|-7-7---7--7-----0~~-|


---------------------------
03:30
BREAK
******
G|------|---------|---------|---------|
D|------|-----9---|-----9---|-----9---|
A|-9--9-|-7-7---7-|-7-7---7-|-7-7---7-|
E|------|---------|---------|---------|X5


---------------------------
03:54
CHORUS
*******
G|--------|-------------|-------------|-------------|-------------|---------|---------|---------|
D|--------|-------13----|-------13----|-------14----|-------14----|-----9---|-----9---|-----9---|
A|-9--9-9-|-11-11----11-|-11-11----11-|-12-12----12-|-12-12----12-|-7-7---7-|-7-7---7-|-7-7---7-|
E|--------|-------------|-------------|-------------|-------------|---------|---------|---------|


G|--------|------------------|------------------|------------------|----------------h---------|
D|--------|------------------|------------------|------------------|-------13-----13-14-13----|
A|-9--9-9-|-----7--------7---|-----9--------9---|-----11------11---|-11-11----11-----------14-|
E|--------|-5-5---5--5-5---5-|-7-7---7--7-7---7-|-9-9----9--9----9-|--------------------------|


G|----------------|-----------------------|
D|----------------|-----------------s-----|
A|-----7------7---|-----9----------9\-----|
E|-5-5---5--5---5-|-7-7---7--7-7-7----0~~-|


---------------------------
04:27
OUTRO
******
G|------|---------|---------|---------|
D|------|-----9---|-----9---|-----9---|
A|-9--9-|-7-7---7-|-7-7---7-|-7-7---7-|
E|------|---------|---------|---------|X4



ENJOY...........
Suggest correction
comments
print report bad tab
guest
You may want to rate the tab now too:
select rating
Wanna post a correction for this tab? Suggest correction