Oops, an error
Loading. Please wait.

Conversation Piece Chords

2,239 views 210 this week
4 commentsread comments
1 2 3 4 5
x 17
add to favorites
launch autoscroll
font size
0
reset
transpose
0
reset
display chords
guitar tuner
Autoscroll
slow
fast
+/-
esc
set tempo
stop
Help us to improve Ultimate-Guitar.com Take our survey!
×
Author
Difficulty
This is my first contribution, i hope that you like it.
Listen to the song to understand the transition between E and F#m

Intro tab

e|-------------------------------------------------------------------------------
B|-----9-------9-------9-------10--------9-------9-------9-------10---------12---
G|---9---9---9---9---9---9---11---11---9---9---9---9---9---9---11---11---13---13-
D|-9-------9-------9-------11--------9-------9-------9-------11--------13--------
A|-------------------------------------------------------------------------------
E|-------------------------------------------------------------------------------

e|--------------------------------------------------------------------------
B|------12---------10---------10--------------------------------------------
G|---13---13----11----11---11---11------------------------------------------
D|-13--------11---------11--------9(start again)----------------------------
A|--------------------------------------------------------------------------
E|--------------------------------------------------------------------------


[Intro]
E       F#m E       F#m
G#m   F#m   E       F#m

[Verse]
 E                            F#m 
Take me back to California
 E                            F#m 
To those crystal neon signs
G#m             F#m        E                         F#m
The traveling sensation, I'm blinded by the light

E                               F#m
There are eyes on every corner
E                               F#m
Blow your brains and [?] and smile
G#m                 A
Coats of many colors
F#m                        E       F#m
Flying high up in the sky

[Chorus]
G#m                         A
Oh won't you come round my way
                   E               F#m
For some conversation, please
G#m                         A
Won't you come round my way
                   E               F#m
It's a conversation piece

E  F#m

[Verse]
 E                              F#m 
Look at all these shattered faces
 E                              F#m 
They all look so out of place
G#m                            A
They've got nothing left to live for
F#m                        E              F#m
They'll be dead before they wait

 E                              F#m 
I'd love to know just what you're thinking
 E                              F#m 
Tell me what I ought to do
G#m                            A
I will never leave you lonely,
F#m                        E       F#m
You're the one I'm runnin' to

[Bridge]
A                     B
Get me out of California
C#m                   G#m
Take out there to the blue
A                      B
We could make it out together
C#m                   G#m
To the places calling you

[Chorus]
A                     B
Won't you come round my way
               C#m                 G#m
For some conversation, please
A                      B
Won't you come round my way
                E                  F#m
It's a conversation piece

E  F#m x5

[Chorus]
G#m                         A
Oh won't you come round my way
                   E               F#m
For some conversation, please
A                     B
Oh won't you come round my way
               C#m                 G#m
For some conversation, please
A                      B
Oh, won't you come round my way
                E                  F#m
It's a conversation piece

E  F#m x4


Thanks, Luciano. 
Suggest correction
comments
print report bad tab
4 comments total. Showing first comments.
+1 reply
LaurenHenley 54 Oct 24, 2016 05:34 PM

YES! great job.
Maybe include the strum pattern to get higher rating? Easy to figure out but including for beginners would be cool to include!!

|--------------------------------------------------------------------------
|--------------------------------------------------------------------------
|-----1-------1-------1-------2-------1-------1-------1-------2-------4----
|---2---2---2---2---2---2---4---4---2---2---2---2---2---2---4---4---6---6--
|-2-------2-------2-------4-------2-------2-------2-------4-------6-------6
|--------------------------------------------------------------------------

|--------------------------------------------------------------------------
|--------------------------------------------------------------------------
|-----4-------2-------2----------------------------------------------------
|---6---6---4---4---4---4--------------------------------------------------
|-6-------4-------4-------2(start again)-----------------------------------
|--------------------------------------------------------------------------

0 reply
tulokerstwo 39 Oct 29, 2016 10:47 PM

I'd love to see the strumming pattern please!
I'm a beginner and can't quite pick it.

0 reply
pacodrummer 12 Nov 14, 2016 07:32 AM

e|---------------------------------------------------------------------
B|---9-------9-------10--------12----12-------- 10-------10---------9--
G|-9---9---9---9---11---11---13--13-----13---11---11---11---11----9----
D|-------9-------11--------13------13------11--------11---------9------
A|---------------------------------------------------------------------
E|---------------------------------------------------------------------

I think the intro should be like this just a minor change but to me sounds better and most accurate

guest
You may want to rate the tab now too:
select rating
Wanna post a correction for this tab? Suggest correction