Oops, an error
Loading. Please wait.

Crawl bass

version 3
version 3

Whole song

Interactive

2,146 views 12 this week
no commentswrite comment
1 2 3 4 5
1 last vote to show rating
add to favorites
×
Save as Personal and add changes to this tab that will be seen only by you. Learn more ›
×
You can save this tab as Personal to edit and correct it or add notes. All changes will be seen only by you. Learn more »
launch autoscroll
font size
0
reset
guitar tuner
backing track
0:00
0:00
edit
Autoscroll
slow
fast
+/-
esc
set tempo
stop
Author
Difficulty
-----------------------------------------------------------------------------
                           CRAWL - Kings of Leon
-----------------------------------------------------------------------------
Standard Tuning (EADG)
Distortion/Muff Pedal
Use a Pick
"*" = let note ring


// Intro //

Harmonics over fret bar between frets 16&17 on G string
G|-(x)(x)(x)(x)(x)(x)(x)(x)(x)(x)(x)(x)(x)(x)(x)(x)-0*--------------|
D|------------------------------------------------------------------|
A|------------------------------------------------------------------|
E|----------------------------------------------------------------\-|

Main Riff                    Variation 3 (Live only) (after Main Riff 8x)
G|-------------|             G|------12-12-12-12-12-\-|
D|----7----7---|             D|-----------------------|
A|-------------|  15x        A|--/10------------------|
E|-05---55---5-|             E|-----------------------|

Variation 1
G|------12-12-12---12-\-|
D|----------------------|
A|--/10----------10-----| 
E|----------------------|

Main Riff
G|-------------|
D|----7----7---|
A|-------------|  7x
E|-05---55---5-|

Variation 2
G|------------|
D|------------|
A|------------|
E|-7-5-7-5-05-|

Main Riff
G|-------------|
D|----7----7---|
A|-------------|  4x    
E|-05---55---5-|


// Verse 1 //

(Singing Starts)

Main Riff
G|-------------|
D|----7----7---|
A|-------------|  8x 
E|-05---55---5-|

Main Riff 2
G|------------------|
D|------12-----12---|
A|------------------|  4x
E|-0-10----1010--10-|

Main Riff
G|-------------|
D|----7----7---|
A|-------------|  4x    
E|-05---55---5-|


// Interlude 1 //

Main Riff
G|-------------|
D|----7----7---|
A|-------------|  7x    
E|-05---55---5-|

Variation 3
G|------12-12-12-12-12-\-|
D|-----------------------|
A|--/10------------------|
E|-----------------------|

Main Riff
G|-------------|
D|----7----7---|
A|-------------|  4x    
E|-05---55---5-|


// Verse 2 //

Main Riff
G|-------------|
D|----7----7---|
A|-------------|  8x 
E|-05---55---5-|

Main Riff 2
G|------------------|
D|------12-----12---|
A|------------------|  3x
E|-0-10----1010--10-|

Variation 4
G|-------------------|
D|-12h14-12-10-------|
A|-------------12-10-|
E|-------------------|

Main Riff
G|-------------|
D|----7----7---|
A|-------------|  4x    
E|-05---55---5-|


// Chorus //  (No Distortion)

G|--12-------------12--------|
D|----0h12-14-12-----0h12-14-|
A|---------------------------|  2x
E|0*-------------00*---------|

G|--12-------------12--------|
D|----0h12-14-12-----0h12-14-|
A|0*-------------00*---------|  2x
E|---------------------------|

G|--12-------------12--------|
D|----0h12-14-12-----0h12-14-|
A|---------------------------|  2x
E|0*-------------00*---------|

G|--12-------------12--------|
D|----0h12-14-12-----0h12-14-|
A|0*-------------00*---------|
E|---------------------------|

G|--12-------------12-----|
D|----0h12-14-12-----0h12-|
A|0*-------------00*------|
E|------------------------|

G|------------------------------------|
D|14-14-12h14-12h14-12----------------|
A|--------------------14-12-10--------|
E|----------------------------12-10-\-|


// Interlude 2 //

Main Riff
G|-------------|
D|----7----7---|
A|-------------|  7x    
E|-05---55---5-|

Variation 3
G|------12-12-12-12-12-\-|
D|-----------------------|
A|--/10------------------|
E|-----------------------|

Main Riff
G|-------------|
D|----7----7---|
A|-------------|  7x    
E|-05---55---5-|

Variation 2
G|------------|
D|------------|
A|------------|
E|-7-5-7-5-05-|

Main Riff
G|-------------|
D|----7----7---|
A|-------------|  4x    
E|-05---55---5-|


// Verse 3 //

Main Riff
G|-------------|
D|----7----7---|
A|-------------|  8x 
E|-05---55---5-|

Main Riff 2
G|------------------|
D|------12-----12---|
A|------------------|  3x
E|-0-10----1010--10-|

Variation 4
G|------------|
D|-12-10------|
A|-------12-8-|
E|------------|

Main Riff
G|-------------|
D|----7----7---|
A|-------------|  4x    
E|-05---55---5-|


// Chorus // (No Distortion)

G|--12-------------12--------|
D|----0h12-14-12-----0h12-14-|
A|---------------------------|  2x
E|0*-------------00*---------|

G|--12-------------12--------|
D|----0h12-14-12-----0h12-14-|
A|0*-------------00*---------|  2x
E|---------------------------|

G|--12-------------12--------|
D|----0h12-14-12-----0h12-14-|
A|---------------------------|  2x
E|0*-------------00*---------|

G|--12-------------12--------|
D|----0h12-14-12-----0h12-14-|
A|0*-------------00*---------|
E|---------------------------|

G|--12-------------12-----|
D|----0h12-14-12-----0h12-|
A|0*-------------00*------|
E|------------------------|

G|-------------------------------|
D|14-14-12h14-14-14-12-----------|
A|--------------------14-12-10-\-|
E|-------------------------------|


// Outro/Guitar Solo //

Main Riff 
G|-------------| 
D|----7----7---|             
A|-------------|  7x        
E|-05---55---5-|             

Variation 5
G|------12-12-12---12-12-12-|
D|--------------------------|
A|--/10----------10---------| 
E|--------------------------|

Main Riff
G|-------------|
D|----7----7---|
A|-------------|  7x
E|-05---55---5-|

Variation 1
G|------12-12-12---12-\-|
D|----------------------|
A|--/10----------10-----| 
E|----------------------|

Main Riff
G|-------------|
D|----7----7---|
A|-------------|  7x
E|-05---55---5-|

Variation 2
G|-----------------------------------------------------------------|
D|-----------------------------------------------------------------|
A|-----------------------------------------------------------------|
E|-7-5-7-5-05*-(Bend E string until end, then cut out with guitar)-|


Probably one of my favorite KOL songs
I'm pretty sure this is almost 100% accurate, down to the variations and fills and such
Should be completely true to the album.
Have Fun!

/|\

            
            
Suggest correction
Creating personal tab
Creating personal tab
You can edit any tab online and save it as your Personal.

You can edit, replace or remove any tab part or add personal notes – all changes will be seen only by you.

Personal tabs can be accessed anytime from any device, even offline.
Learn more »
Give kudos to tab author, rate the tab!
1 2 3 4 5
comments
print report bad tab
guest
You may want to rate the tab now too:
select rating
Wanna post a correction for this tab? Suggest correction