Oops, an error
Loading. Please wait.

Day Old Blues tab

version 4
version 4

Whole song

987 views 1 this week
no commentswrite comment
1 2 3 4 5
2 more votes to show rating
add to favorites
×
Save as Personal and add changes to this tab that will be seen only by you. Learn more ›
×
You can save this tab as Personal to edit and correct it or add notes. All changes will be seen only by you. Learn more »
launch autoscroll
font size
0
reset
how to read this tab
guitar tuner
edit
Autoscroll
slow
fast
+/-
esc
set tempo
stop
Author
[INTRO]

    Emaj7           F#m11/E   E                         Emaj7           F#m11/E   E
e |------------------------------0----------------------0----0---0-0----0---0-0---0----|
B |-0----0---0-0----0---0-0------0----------------------0----0---0-0----0---0-0---0----|
G |-4----4---4-4----2---2-2---1--1----------------------4----4---4-4----2---2-2---1----|
D |-6----6---6-6----4---4-4---2--2----------------------6----6---6-6----4---4-4---2----|
A |-6----6---6-6----4---4-4---2--2----------------------6----6---6-6----4---4-4---2----|
E |------------------------------0------------------------------------------------0----|

    F#m11/E         Emaj7        E                      Emaj7           F#m11/E   E
   -0----0---0-0----0---0--------0----------------------0----0---0-0----0---0-0---0----|
   -0----0---0-0----0---0--------0----------------------0----0---0-0----0---0-0---0----|
   -2----2---2-2----4---4--------1----------------------4----4---4-4----2---2-2---1----|
   -4----4---4-4----6---6-6------2----------------------6----6---6-6----4---4-4---2----|
   -4----4---4-4----6------------2----------------------6----6---6-6----4---4-4---2----|
   ---------------------------0--0------------------------------------------------0----|

[VERSE 1]
    Emaj7           F#m11/E   E                         Emaj7           F#m11/E   E
e |-0----0---0-0----0---0-0------0----------------------0----0---0-0----0---0-0---0----|
B |-0----0---0-0----0---0-0------0----------------------0----0---0-0----0---0-0---0----|
G |-4----4---4-4----2---2-2---1--1----------------------4----4---4-4----2---2-2---1----|
D |-6----6---6-6----4---4-4---2--2----------------------6----6---6-6----4---4-4---2----|
A |-6----6---6-6----4---4-4---2--2----------------------6----6---6-6----4---4-4---2----|
E |-0----0---0-0----0---0-0---0--0----------------------0----0---0-0----0---0-0---0----|

    F#m11/E         Emaj7        E                      Emaj7           F#m11/E   E
   -0----0---0-0----0---0--------0----------------------0----0---0-0----0---------0----|
   -0----0---0-0----0---0--------0----------------------0----0---0-0----0---------0----|
   -2----2---2-2----4---4-4------1----------------------4----4---4-4----2---------1----|
   -4----4---4-4----6---6-6------2----------------------6----6---6-6----4---------2----|
   -4----4---4-4----6------------2----------------------6----6---6-6----4---------2----|
   -0----0---0-0----0---------0--0----------------------0----0---0-0----0---------0----|


[LINK]

    Emaj7           F#m11/E   E
e |-0----0---0-0----0---0-0------0-----------------------------------------------------|
B |-0----0---0-0----0---0-0------0-----------------------------------------------------|
G |-4----4---4-4----2---2-2---1--1-----------------------------------------------------|
D |-6----6---6-6----4---4-4---2--2-----------------------------------------------------|
A |-6----6---6-6----4---4-4---2--2-----------------------------------------------------|
E |-0----0---0-0----0---0-0---0--0-----------------------------------------------------|

[VERSE 2]

    Emaj7           F#m11/E   E                         Emaj7           F#m11/E   E
e |-0----0---0-0----0---0-0------0----------------------0----0---0-0----0---0-0---0----|
B |-0----0---0-0----0---0-0------0----------------------0----0---0-0----0---0-0---0----|
G |-4----4---4-4----2---2-2---1--1----------------------4----4---4-4----2---2-2---1----|
D |-6----6---6-6----4---4-4---2--2----------------------6----6---6-6----4---4-4---2----|
A |-6----6---6-6----4---4-4---2--2----------------------6----6---6-6----4---4-4---2----|
E |-0----0---0-0----0---0-0---0--0----------------------0----0---0-0----0---0-0---0----|

    F#m11/E         Emaj7        E                      Emaj7           F#m11/E   E
   -0----0---0-0----0---0(0)-----0----------------------0----0---0-0----0-----0---0----|
   -0----0---0-0----0---0(0)-----0----------------------0----0---0-0----0-----0---0----|
   -2----2---2-2----4---4-4--(1)-1----------------------4----4---4-4----2-----2---1----|
   -4----4---4-4----6---6-6--(2)-2----------------------6----6---6-6----4-----4---2----|
   -4----4---4-4----6--(6-6)-(2)-2----------------------6----6---6-6----4-----4---2----|
   -0----0---0-0----0--(0-0)--0--0----------------------0----0---0-0----0-----0---0----|


[CHORUS]

e |------------------------------------------------------------------------------------|
B |-10/12--12--12-12\10--10--10-10--9-9------------10/12--12--12-12\10--10--10-10--9-9-|
G |-11/13--13--13-13\11--11--11-11--9-9------------11/13--13--13-13\11--11--11-11--9-9-|
D |------------------------------------------------------------------------------------|
A |------------------------------------------------------------------------------------|
E |------------------------------------------------------------------------------------|
                                                   E         F#m            E
  |------------------------------------------------12--12--X--9---9---9--9--7------------|
  |-10/12--12--12-12\10--10--10-10--9-9------------12--12--X-10--10--10-10--9------------|
  |-11/13--13--13-13\11--11--11-11--9-9------------13--13--X-11--11--11-11--9------------|
|----------------------------------------------------------------------------------------|
|----------------------------------------------------------------------------------------|
|----------------------------------------------------------------------------------------|


[LINK]

    Emaj7           F#m11/E   E
e |-0----0---0-0----0---0-0---0--0-----------------------------------------------------|
B |-0----0---0-0----0---0-0---0--0-----------------------------------------------------|
G |-4----4---4-4----2---2-2---1--1-----------------------------------------------------|
D |-6----6---6-6----4---4-4---2--2-----------------------------------------------------|
A |-6----6---6-6----4---4-4---2--2-----------------------------------------------------|
E |-0----0---0-0----0---0-0---0--0-----------------------------------------------------|

[VERSE 2]

    Emaj7           F#m11/E   E                         Emaj7           F#m11/E   E
e |-0----0---0-0----0---0-0------0----------------------0----0---0-0----0---0-0---0----|
B |-0----0---0-0----0---0-0---0--0----------------------0----0---0-0----0---0-0---0----|
G |-4----4---4-4----2---2-2---1--1----------------------4----4---4-4----2---2-2---1----|
D |-6----6---6-6----4---4-4---2--2----------------------6----6---6-6----4---4-4---2----|
A |-6----6---6-6----4---4-4---2--2----------------------6----6---6-6----4---4-4---2----|
E |-0----0---0-0----0---0-0---0--0----------------------0----0---0-0----0---0-0---0----|

 [CHORUS]

e |------------------------------------------------------------------------------------|
B |-12--12--12-12\10--10--10-10--9-9------------10/12--12--12-12\10--10--10-10--9-9----|
G |-13--13--13-13\11--11--11-11--9-9------------11/13--13--13-13\11--11--11-11--9-9----|
D |------------------------------------------------------------------------------------|
A |------------------------------------------------------------------------------------|
E |------------------------------------------------------------------------------------|
                                                   E                 F#m        E
  |------------------------------------------------12--12--12-12------9---9--9---------|
  |-12--12--12-12--10--10-10--9-9------------------12--12--12-12-----10--10-10--9-9----|
  |-13--13--13-13--11--11-11--9-9------------------13--13--13-13-----11--11-11--9-9----|
  |------------------------------------------------14--14--14-14-----11--11-11--9-9----|
  |------------------------------------------------14--14--14-14------9---9--9--7-7----|
  |------------------------------------------------12--12--12-12-----------------------|


[MIDDLE]

    A               B11/A            A               B11/A
e |-0---------------0----------------0-------------------------------------------------|
B |-2---2---2---2---4---4-4-4-4-4---42---2---2---2---4-4-4-4-4-4-4---------------------|
G |-2---2---2---2---4---4-4-4-4-4---42---2---2---2---4-4-4-4-4-4-4---------------------|
D |-2---2---2---2---4---4-4-4-4-4---42---2---2---2---4-4-4-4-4-4-4---------------------|
A |-0---0---0---0---0---0-0-0-0-0---00---0---0---0---0-0-0-0-0-0-0---------------------|
E |------------------------------------------------------------------------------------|
    *               *                *

[LINK]


    Emaj7           F#m11/E   E
e |-0----0---0-0----0---0-0---0--0-----------------------------------------------------|
B |-0----0---0-0----0---0-0---0--0-----------------------------------------------------|
G |-4----4---4-4----2---2-2---1--1-----------------------------------------------------|
D |-6----6---6-6----4---4-4---2--2-----------------------------------------------------|
A |-6----6---6-6----4---4-4---2--2-----------------------------------------------------|
E |-0----0---0-0----0---0-0---0--0-----------------------------------------------------|

[FINAL]
e |------------------------------------------------------------------------------------|
B |-12--12--12-12--10--10-10--9-9--------------------12--12--12-12---10--10-10--9-9----|
G |-13--13--13-13--11--11-11--9-9--------------------13--13--13-13---11--11-11--9-9----|
D |------------------------------------------------------------------------------------|
A |------------------------------------------------------------------------------------|
E |------------------------------------------------------------------------------------|

  |------------------------------------------------------------------------------------|
  |-12--12--12-12--10--10-10--9-9-----------------10/12--12--12-12---10--10-10--9-9----|
  |-13--13--13-13--11--11-11--9-9-----------------11/13--13--13-13---11--11-11--9-9----|
  |------------------------------------------------------------------------------------|
  |------------------------------------------------------------------------------------|
  |------------------------------------------------------------------------------------|
    E              F#m        E                    E                 F#m        E
  |-12--12--12-12---9---9--9-----------------------12--12--12-12------9---9--9---------|
  |-12--12--12-12--10--10-10--9-9------------------12--12--12-12-----10--10-10--9------|
  |-13--13--13-13--11--11-11--9-9------------------13--13--13-13-----11--11-11--9------|
  |-14--14--14-14--11--11-11--9-9------------------14--14--14-14-----11--11-11--9------|
  |-14--14--14-14---9---9--9--7-7------------------14--14--14-14------9---9--9--7------|
  |-12--12--12-12----------------------------------12--12--12-12-----------------------|

            
            
Suggest correction
Creating personal tab
Creating personal tab
You can edit any tab online and save it as your Personal.

You can edit, replace or remove any tab part or add personal notes – all changes will be seen only by you.

Personal tabs can be accessed anytime from any device, even offline.
Learn more »
Give kudos to tab author, rate the tab!
1 2 3 4 5
comments
print report bad tab
guest
You may want to rate the tab now too:
select rating
Wanna post a correction for this tab? Suggest correction