Oops, an error
Loading. Please wait.

Eyes On You Bass Tab

version 1
version 1

Whole song

232 views 24 this week
no commentswrite comment
1 2 3 4 5
3 more votes to show rating
add to favorites
launch autoscroll
font size
0
reset
guitar tuner
Autoscroll
slow
fast
+/-
esc
set tempo
stop
Help us to improve Ultimate-Guitar.com Take our survey!
×
Author
Difficulty
novice
[Intro] (x2) 

G|--------------------|-----12-10--9----|---------------|----9-10--9-----|        
D|10---10-10--10-10---|10------------10-|7---7-7---7-7--|7-----------10--|        
A|--------------------|-----------------|---------------|----------------|       
E|--------------------|-----------------|---------------|----------------|
  1  + 2  +  3  +  4 + 1  + 2  + 3 + 4 + 1 + 2 + 3 + 4 + 1 + 2 + 3 + 4 + 
                                                                                   
G|---------------|--------------------|---------------|--------------------|
D|-------------x/|12---12-12--12-12---|-------------x/|12---12-12--12-12---|
A|8---8-8--8-8---|--------------------|8---8-8--8-8---|--------------------|
E|---------------|--------------------|---------------|--------------------|
  1 + 2 + 3 + 4 + 1  + 2  +  3  +  4 + 1 + 2 + 3 + 4 + 1  + 2  +  3  +  4 + 


[Verse]

G|--------------------|--------------------|---------------|---------------|        
D|10---10-10--10-10---|10---10-10--10-10---|7---7-7---7-7--|7---7-7--7-7---|        
A|--------------------|--------------------|---------------|---------------|       
E|--------------------|--------------------|---------------|---------------|
  1  + 2  +  3  +  4 + 1  + 2  +  3  +  4 + 1 + 2 + 3 + 4 + 1 + 2 + 3 + 4 + 
                                                                                   
G|---------------|--------------------|---------------|--------------------|
D|-------------x/|12---12-12--12-12---|-------------x/|12---12-12--12-12---|
A|8---8-8--8-8---|--------------------|8---8-8--8-8---|--------------------|
E|---------------|--------------------|---------------|--------------------|
  1 + 2 + 3 + 4 + 1  + 2  +  3  +  4 + 1 + 2 + 3 + 4 + 1  + 2  +  3  +  4 + 

G|--------------------|--------------------|---------------|---------------|        
D|10---10-10--10-10---|10---10-10--10-10---|7---7-7---7-7--|7---7-7--7-7---|        
A|--------------------|--------------------|---------------|---------------|       
E|--------------------|--------------------|---------------|---------------|
  1  + 2  +  3  +  4 + 1  + 2  +  3  +  4 + 1 + 2 + 3 + 4 + 1 + 2 + 3 + 4 + 
                                                                                   
G|---------------|--------------------|---------------|--------------------|
D|-------------x/|12---12-12--12-12---|-------------x/|12---12-12--12-12---|
A|8---8-8--8-8---|--------------------|8---8-8--8-8---|--------------------|
E|---------------|--------------------|---------------|--------------------|
  1 + 2 + 3 + 4 + 1  + 2  +  3  +  4 + 1 + 2 + 3 + 4 + 1  + 2  +  3  +  4 + 

G|--------------------|-----12-10--9----|---------------|----9-10--9-----|        
D|10---10-10--10-10---|10------------10-|7---7-7---7-7--|7-----------10--|        
A|--------------------|-----------------|---------------|----------------|       
E|--------------------|-----------------|---------------|----------------|
  1  + 2  +  3  +  4 + 1  + 2  + 3 + 4 + 1 + 2 + 3 + 4 + 1 + 2 + 3 + 4 + 
                                                                                   
G|---------------|--------------------|---------------|--------------------|
D|-------------x/|12---12-12--12-12---|-------------x/|12---12-12--12-12---|
A|8---8-8--8-8---|--------------------|8---8-8--8-8---|--------------------|
E|---------------|--------------------|---------------|--------------------|
  1 + 2 + 3 + 4 + 1  + 2  +  3  +  4 + 1 + 2 + 3 + 4 + 1  + 2  +  3  +  4 + 

G|--------------------|--------------------|---------------|---------------|        
D|10---10-10--10-10---|10---10-10--10-10---|7---7-7---7-7--|7---7-7--7-7---|        
A|--------------------|--------------------|---------------|---------------|       
E|--------------------|--------------------|---------------|---------------|
  1  + 2  +  3  +  4 + 1  + 2  +  3  +  4 + 1 + 2 + 3 + 4 + 1 + 2 + 3 + 4 + 
                                                                                   
G|---------------|--------------------|---------------|--------------------|
D|-------------x/|12---12-12--12-12---|-------------x/|12---12-12--12-12---|
A|8---8-8--8-8---|--------------------|8---8-8--8-8---|--------------------|
E|---------------|--------------------|---------------|--------------------|
  1 + 2 + 3 + 4 + 1  + 2  +  3  +  4 + 1 + 2 + 3 + 4 + 1  + 2  +  3  +  4 + 

G|--------------------|--------------------|---------------|---------------|        
D|10---10-10--10-10---|10---10-10--10-10---|7---7-7---7-7--|7---7-7--7-7---|        
A|--------------------|--------------------|---------------|---------------|       
E|--------------------|--------------------|---------------|---------------|
  1  + 2  +  3  +  4 + 1  + 2  +  3  +  4 + 1 + 2 + 3 + 4 + 1 + 2 + 3 + 4 + 
                                                                                   
G|---------------|--------------------|---------------|--------------------|
D|-------------x/|12---12-12--12-12---|-------------x/|12---12-12--12-12---|
A|8---8-8--8-8---|--------------------|8---8-8--8-8---|--------------------|
E|---------------|--------------------|---------------|--------------------|
  1 + 2 + 3 + 4 + 1  + 2  +  3  +  4 + 1 + 2 + 3 + 4 + 1  + 2  +  3  +  4 + 


[Chorus]

G|--------------------------------|--------------------------------|-------------------|-------------------|
D|--------------------5-----------|--------------------5-----------|-----14-15--14-----|-----14-15--14-----| 
A|--------5-----//7---------7--5--|--------5-----//7---------7--5-/|12-------------15--|12-------------15--|
E|3-------------------------------|3-------------------------------|-------------------|-------------------|
  1 + 2 + 3 + 4 + 1 + 2 + 3 + 4 +  1 + 2 + 3 + 4 + 1 + 2 + 3 + 4 +  1  + 2  + 3 +  4 +  1  + 2  + 3 +  4 +

G|-------------------|-------------------|
D|-----14-15--14-----|-----14-15--14-----| 
A|15-------------15--|15-------------15\-|
E|-------------------|-------------------|
  1  + 2  + 3 +  4 +  1  + 2  + 3 +  4 +

G|--------------------------------|--------------------------------|-------------------|-------------------|
D|--------------------5-----------|--------------------5-----------|-----14-15--14-----|-----14-15--14-----| 
A|--------5-----//7---------7--5--|--------5-----//7---------7--5-/|15-------------15--|15-------------15--|
E|3-------------------------------|3-------------------------------|-------------------|-------------------|
  1 + 2 + 3 + 4 + 1 + 2 + 3 + 4 +  1 + 2 + 3 + 4 + 1 + 2 + 3 + 4 +  1  + 2  + 3 +  4 +  1  + 2  + 3 +  4 +

G|-------------------|-------------------|
D|-----14-15--14-----|-------------------| 
A|15-------------15--|15-----------------|
E|-------------------|-------------------|
  1  + 2  + 3 +  4 +  1  + 2  + 3 +  4 +


[Verse]

G|--------------------|-----12-10--9----|---------------|----9-10--9-----|        
D|10---10-10--10-10---|10------------10-|7---7-7---7-7--|7-----------10--|        
A|--------------------|-----------------|---------------|----------------|       
E|--------------------|-----------------|---------------|----------------|
  1  + 2  +  3  +  4 + 1  + 2  + 3 + 4 + 1 + 2 + 3 + 4 + 1 + 2 + 3 + 4 + 
                                                                                   
G|---------------|--------------------|---------------|--------------------|
D|-------------x/|12---12-12--12-12---|-------------x/|12---12-12--12-12---|
A|8---8-8--8-8---|--------------------|8---8-8--8-8---|--------------------|
E|---------------|--------------------|---------------|--------------------|
  1 + 2 + 3 + 4 + 1  + 2  +  3  +  4 + 1 + 2 + 3 + 4 + 1  + 2  +  3  +  4 + 

G|--------------------|--------------------|---------------|---------------|        
D|10---10-10--10-10---|10---10-10--10-10---|7---7-7---7-7--|7---7-7--7-7---|        
A|--------------------|--------------------|---------------|---------------|       
E|--------------------|--------------------|---------------|---------------|
  1  + 2  +  3  +  4 + 1  + 2  +  3  +  4 + 1 + 2 + 3 + 4 + 1 + 2 + 3 + 4 + 
                                                                                   
G|---------------|--------------------|---------------|--------------------|
D|-------------x/|12---12-12--12-12---|-------------x/|12---12-12--12-12---|
A|8---8-8--8-8---|--------------------|8---8-8--8-8---|--------------------|
E|---------------|--------------------|---------------|--------------------|
  1 + 2 + 3 + 4 + 1  + 2  +  3  +  4 + 1 + 2 + 3 + 4 + 1  + 2  +  3  +  4 + 

G|--------------------|--------------------|---------------|---------------|        
D|10---10-10--10-10---|10---10-10--10-10---|7---7-7---7-7--|7---7-7--7-7---|        
A|--------------------|--------------------|---------------|---------------|       
E|--------------------|--------------------|---------------|---------------|
  1  + 2  +  3  +  4 + 1  + 2  +  3  +  4 + 1 + 2 + 3 + 4 + 1 + 2 + 3 + 4 + 
                                                                                   
G|---------------|--------------------|---------------|--------------------|
D|-------------x/|12---12-12--12-12---|-------------x/|12---12-12--12-12---|
A|8---8-8--8-8---|--------------------|8---8-8--8-8---|--------------------|
E|---------------|--------------------|---------------|--------------------|
  1 + 2 + 3 + 4 + 1  + 2  +  3  +  4 + 1 + 2 + 3 + 4 + 1  + 2  +  3  +  4 + 


[Chorus]

G|--------------------------------|--------------------------------|-------------------|-------------------|
D|--------------------5-----------|--------------------5-----------|-----14-15--14-----|-----14-15--14-----| 
A|--------5-----//7---------7--5--|--------5-----//7---------7--5-/|12-------------15--|12-------------15--|
E|3-------------------------------|3-------------------------------|-------------------|-------------------|
  1 + 2 + 3 + 4 + 1 + 2 + 3 + 4 +  1 + 2 + 3 + 4 + 1 + 2 + 3 + 4 +  1  + 2  + 3 +  4 +  1  + 2  + 3 +  4 +

G|-------------------|-------------------|
D|-----14-15--14-----|-----14-15--14-----| 
A|15-------------15--|15-------------15\-|
E|-------------------|-------------------|
  1  + 2  + 3 +  4 +  1  + 2  + 3 +  4 +

G|--------------------------------|--------------------------------|-------------------|-------------------|
D|--------------------5-----------|--------------------5-----------|-----14-15--14-----|-----14-15--14-----| 
A|--------5-----//7---------7--5--|--------5-----//7---------7--5-/|15-------------15--|15-------------15--|
E|3-------------------------------|3-------------------------------|-------------------|-------------------|
  1 + 2 + 3 + 4 + 1 + 2 + 3 + 4 +  1 + 2 + 3 + 4 + 1 + 2 + 3 + 4 +  1  + 2  + 3 +  4 +  1  + 2  + 3 +  4 +

G|-------------------|-------------------|
D|-----14-15--14-----|-------------------| 
A|15-------------15--|15-----------------|
E|-------------------|-------------------|
  1  + 2  + 3 +  4 +  1  + 2  + 3 +  4 +


[Solo] (x2)

G|--------------------|-----12-10--9----|---------------|----9-10--9-----|        
D|10---10-10--10-10---|10------------10-|7---7-7---7-7--|7-----------10--|        
A|--------------------|-----------------|---------------|----------------|       
E|--------------------|-----------------|---------------|----------------|
  1  + 2  +  3  +  4 + 1  + 2  + 3 + 4 + 1 + 2 + 3 + 4 + 1 + 2 + 3 + 4 + 
                                                                                   
G|---------------|--------------------|---------------|--------------------|
D|-------------x/|12---12-12--12-12---|-------------x/|12---12-12--12-12---|
A|8---8-8--8-8---|--------------------|8---8-8--8-8---|--------------------|
E|---------------|--------------------|---------------|--------------------|
  1 + 2 + 3 + 4 + 1  + 2  +  3  +  4 + 1 + 2 + 3 + 4 + 1  + 2  +  3  +  4 + 


[Verse] (x2)

G|--------------------|--------------------|---------------|---------------|        
D|10---10-10--10-10---|10---10-10--10-10---|7---7-7---7-7--|7---7-7--7-7---|        
A|--------------------|--------------------|---------------|---------------|       
E|--------------------|--------------------|---------------|---------------|
  1  + 2  +  3  +  4 + 1  + 2  +  3  +  4 + 1 + 2 + 3 + 4 + 1 + 2 + 3 + 4 + 
                                                                                   
G|---------------|--------------------|---------------|--------------------|
D|-------------x/|12---12-12--12-12---|-------------x/|12---12-12--12-12---|
A|8---8-8--8-8---|--------------------|8---8-8--8-8---|--------------------|
E|---------------|--------------------|---------------|--------------------|
  1 + 2 + 3 + 4 + 1  + 2  +  3  +  4 + 1 + 2 + 3 + 4 + 1  + 2  +  3  +  4 + 


[Chorus]

G|--------------------------------|--------------------------------|-------------------|-------------------|
D|--------------------5-----------|--------------------5-----------|-----14-15--14-----|-----14-15--14-----| 
A|--------5-----//7---------7--5--|--------5-----//7---------7--5-/|12-------------15--|12-------------15--|
E|3-------------------------------|3-------------------------------|-------------------|-------------------|
  1 + 2 + 3 + 4 + 1 + 2 + 3 + 4 +  1 + 2 + 3 + 4 + 1 + 2 + 3 + 4 +  1  + 2  + 3 +  4 +  1  + 2  + 3 +  4 +

G|-------------------|-------------------|
D|-----14-15--14-----|-----14-15--14-----|   (x3)
A|15-------------15--|15-------------15\-|
E|-------------------|-------------------|
  1  + 2  + 3 +  4 +  1  + 2  + 3 +  4 +

G|--------------------------------|--------------------------------|-------------------|-------------------|
D|--------------------5-----------|--------------------5-----------|-----14-15--14-----|-----14-15--14-----| 
A|--------5-----//7---------7--5--|--------5-----//7---------7--5-/|15-------------15--|15-------------15--|
E|3-------------------------------|3-------------------------------|-------------------|-------------------|
  1 + 2 + 3 + 4 + 1 + 2 + 3 + 4 +  1 + 2 + 3 + 4 + 1 + 2 + 3 + 4 +  1  + 2  + 3 +  4 +  1  + 2  + 3 +  4 +

G|-------------------|-------------------|
D|-----14-15--14-----|-------------------| 
A|15-------------15--|15-----------------|
E|-------------------|-------------------|
  1  + 2  + 3 +  4 +  1  + 2  + 3 +  4 +


[Outro] (x2)

G|--------------------|-----12-10--9----|---------------|----9-10--9-----|        
D|10---10-10--10-10---|10------------10-|7---7-7---7-7--|7-----------10--|        
A|--------------------|-----------------|---------------|----------------|       
E|--------------------|-----------------|---------------|----------------|
  1  + 2  +  3  +  4 + 1  + 2  + 3 + 4 + 1 + 2 + 3 + 4 + 1 + 2 + 3 + 4 + 
                                                                                   
G|---------------|--------------------|---------------|--------------------|
D|-------------x/|12---12-12--12-12---|-------------x/|12---12-12--12-12---|
A|8---8-8--8-8---|--------------------|8---8-8--8-8---|--------------------|
E|---------------|--------------------|---------------|--------------------|
  1 + 2 + 3 + 4 + 1  + 2  +  3  +  4 + 1 + 2 + 3 + 4 + 1  + 2  +  3  +  4 + 


[End]

G|--------|
D|--------|
A|--------|
E|8~~-----|





************************************

| x   Dead note
| /   Slide up
| \   Slide down
| ~   Vibrato


************************************
Suggest correction
Give kudos to tab author, rate the tab!
1 2 3 4 5
comments
print report bad tab
guest
You may want to rate the tab now too:
select rating
Wanna post a correction for this tab? Suggest correction