Oops, an error
Loading. Please wait.

Eyes On You Bass

version 2
version 2

Whole song

349 views 1 this week
1 commentread comment
1 2 3 4 5
2 more votes to show rating
add to favorites
launch autoscroll
font size
0
reset
guitar tuner
Autoscroll
slow
fast
+/-
esc
set tempo
stop
Author
Difficulty
intermediate
Intro/Solo/Outro:

G |------------------|-----------------|------------------|----------------|
D |------------------|----17-15-14-----|------------------|----14-15-14----|
A |-15--15-15--15-15-|15------------15/|-12--12-12--12-12-|12-----------15/|
E |------------------|-----------------|------------------|----------------|

G |------------------|------------------|------------------|------------------|
D |------------------|------------------|------------------|------------------|
A |------------------|15/17-17-17--17-17|------------------|15/17-17-17--17-17|
E |-13--13-13--13-13-|------------------|-13--13-13--13-13-|------------------|

Verse:

G |------------------|------------------|------------------|------------------|
D |------------------|------------------|------------------|------------------|
A |-15--15-15--15-15-|-15--15-15--15-15-|-12--12-12--12-12-|-12--12-12--12-12-|
E |------------------|------------------|------------------|------------------|

G |------------------|------------------|------------------|------------------|
D |------------------|------------------|------------------|------------------|
A |------------------|15/17-17-17--17-17|------------------|15/17-17-17--17-17|
E |-13--13-13--13-13-|------------------|-13--13-13--13-13-|------------------|

Chorus

G |-------------------|-------------------|
D |-------------------|-------------------|
A |-----------10------|-----------10------|
E |-3/-10-12-----12-10|-3/-10-12-----12-10|

G |----------------|----------------|----------------|----------------|
D |----14-15-14----|----14-15-14----|----14-15-14----|----14-15-14----|
A |12-----------15-|12-----------15-|12-----------15-|12-----------15-|
E |----------------|----------------|----------------|----------------|
Suggest correction
Give kudos to tab author, rate the tab!
1 2 3 4 5
comments
print report bad tab
1 comment total.
0 reply
ayreon77 18,625 Nov 04, 2016 10:11 AM

nice bass,

guest
You may want to rate the tab now too:
select rating
Wanna post a correction for this tab? Suggest correction