Oops, an error
Loading. Please wait.

Fans Tab

version 1
version 1

Solo

  • The tuning is standard and there is no capo used.

Whole song

Interactive

28 views 1 this week
no commentswrite comment
1 2 3 4 5
3 more votes to show rating
add to favorites
launch autoscroll
font size
0
reset
how to read this tab
guitar tuner
Autoscroll
slow
fast
+/-
esc
set tempo
stop
Help us to improve Ultimate-Guitar.com Take our survey!
×
Author
Difficulty
novice
About this tab version
The tuning is standard and there is no capo used. Was this info helpful? Yes No
Hey there! This is a tab for the solo of the  song "Fans".
The tuning is standard. Listen to the song in order to figure out the tempo. 
The tone is mainly shaped by Gain and Overdrive. 
If you have questions please let me know. If you have any suggestions of how to improve the tab, please
comment below!


[Solo]

E|------------------------------------------|----------------------------------------|
B|------12------12----------12------12------|----12------12----------12------12------|
G|--/13------14------13--13------14------13-|-13------14------13--13------14------13-|
D|------------------------------------------|----------------------------------------|
A|------------------------------------------|----------------------------------------|
E|------------------------------------------|----------------------------------------|



E|------------------------------|--------------------------------|
B|-----4-----4--------4-----4---|----4-----4--------4-----4------|
G|\4-----6-----4--4-----6-----4-|-4-----6-----4--4-----6-----4---|
D|------------------------------|--------------------------------|
A|------------------------------|--------------------------------|
E|------------------------------|--------------------------------|



E|------------------------------------------|---------------------------------------|
B|------12------12----------12------12------|-----12------12-------12---------------|
G|--/13------14------13--13------14------13-|-13------14-------13--14b--14--14--13--|
D|------------------------------------------|---------------------------------------|
A|------------------------------------------|---------------------------------------|
E|------------------------------------------|---------------------------------------|


E|------------------------------------------|----------------------------------------------------------|
B|--------16-----16----------16------16-----|----16------16----------16------16------17----------------|
G|--/16------18------16--16------18------16-|-16------18------16--16------18------16--16---------------|
D|------------------------------------------|----------------------------------------------------------|
A|------------------------------------------|----------------------------------------------------------|
E|------------------------------------------|----------------------------------------------------------|

                                                        
***********************************

| /   Slide-up
| \   Slide Down
| b   Bend

***********************************
Suggest correction
Give kudos to tab author, rate the tab!
1 2 3 4 5
comments
print report bad tab
guest
You may want to rate the tab now too:
select rating
Wanna post a correction for this tab? Suggest correction