Oops, an error
Loading. Please wait.

Fans bass

version 2
version 2

Whole song

Interactive

3,182 views 3 this week
5 commentsread comments
1 2 3 4 5
1 last vote to show rating
add to favorites
×
Save as Personal and add changes to this tab that will be seen only by you. Learn more ›
×
You can save this tab as Personal to edit and correct it or add notes. All changes will be seen only by you. Learn more »
launch autoscroll
font size
0
reset
guitar tuner
backing track
0:00
0:00
edit
Autoscroll
slow
fast
+/-
esc
set tempo
stop
Difficulty
intermediate
---FANS – KINGS OF LEON---


Artist: Kings Of Leon
Bassist: Jared Followill
Album: Because Of Times
Tabbed: Josh Hindle

Before I drone on I would just like to say I play a 6 string bass so don’t get worried 
you are confused just forget the C and B strings but I think this song is easier to play 
a 6 string but I will tab alternatives if u have a 4 string.

They might not be perfect but I have tabbed what I think the song sounds like and then a 
which suite the song perfectly to which sounds better but yet u cant beat perfection as 
song is so enjoy both versions.

The kings interpretation
C-------------------------------------------------------------------------------------------------------|
G-------------------------------------------------------------------------------------------------------|
D----2-2-2-2-2-2-2-2-2-2-2-2-2-2-2-2-2-2-2--------------------------------------------------------------|
A-------------------------------------------------------------------------------------------------------|
E-------------------------------------------------------------------------------------------------------|
B-------------------------------------------------------------------------------------------------------|

You kind of get it, it starts that when the lyrics kick in and ends when the lyrics stop 
come in for the second time hard to tell when but if you listen you will get what I am 
  and starts doing this for the rest of the song

C---------4-4-4-4p3h4------------------------------------------------------------------------------------|
G--------------------------------------------------------------------------------------------------------|
D---2----------------------------------------------------------------------------------------------------|
A--------------------------------------------------------------------------------------------------------|
E--------------------------------------------------------------------------------------------------------|
B--------------------------------------------------------------------------------------------------------|

I know you might be saying ‘why the fuck have u done that I have a fuckin 4 string bass 
twat’ but here is the 4 string version bit of a stretch but its exactly the same.


G---------9-9-9-9p3h4------------------------------------------------------------------------------------|
D--------------------------------------------------------------------------------------------------------|
A----7---------------------------------------------------------------------------------------------------|
E--------------------------------------------------------------------------------------------------------|

This is my version of the song a bit more difficult for beginners and is a bass part not 
even tho it looks like cords


C--------------------------------------------------------------------------------------------------------|
G---1----------------6-------8---------------------------------------------------------------------------|
D---2------2-2-------7-------9---------------------------------------------------------------------------|
A---2---2------------7-------9---------------------------------------------------------------------------|
E--------------------------------------------------------------------------------------------------------|
B--------------------------------------------------------------------------------------------------------|


Play all the way threw it’s a working progress but sounds good when you play with the song

P.S this is my first tab so be easy commenting it plus my other was wrong
Suggest correction
Creating personal tab
Creating personal tab
You can edit any tab online and save it as your Personal.

You can edit, replace or remove any tab part or add personal notes – all changes will be seen only by you.

Personal tabs can be accessed anytime from any device, even offline.
Learn more »
Give kudos to tab author, rate the tab!
1 2 3 4 5
comments
print report bad tab
5 comments total. Showing first comments.
+1 reply
hindle is gay 10 Sep 06, 2007 09:32 AM

haha this is a load of absoulute shite this isnt fans its more lyk vans by quees of neon guess hu is writing this i will give u a clue my name is alex

0 reply
pacman_133 51 Jan 05, 2008 12:42 PM

you missed like the slides and everything at the end

0 reply
kruutje 93 Apr 10, 2008 09:13 AM

ya slecht

guest
Wanna post a correction for this tab? Suggest correction