Oops, an error
Loading. Please wait.

Fans bass

version 3
version 3

Whole song

Interactive

24,430 views 36 this week
4 commentsread comments
1 2 3 4 5
x 14
add to favorites
×
Save as Personal and add changes to this tab that will be seen only by you. Learn more ›
×
You can save this tab as Personal to edit and correct it or add notes. All changes will be seen only by you. Learn more »
launch autoscroll
font size
0
reset
guitar tuner
backing track
0:00
0:00
edit
Autoscroll
slow
fast
+/-
esc
set tempo
stop
Author
Difficulty
Kings of Leon - Fans from the album Because of the Times.

Bassist - Jared Followell
..Who plays a  - Thunderbird
Tabmiester - Joey Jojo (because englands queen makes love to the tales i bring)


I decided to tab this song because i couldnt find any other decent tabs for this so i 
to work it out anyway!im 98.76 percent sure this is correct as i have watched a few clips 
him playing it on youtube.

It starts off....

g-----------------------------------|
d-----------------------------------|
a7-7-7-7-7-7-7-7-7-7-7-7-7-7-7-7-7--| (over and over)
e-----------------------------------|

Then at "And all the bro's " it changes to...

g---9----9----9----9----9----9----9----9----9----9----9----9\8----8/9--|
d----------------------------------------------------------------------|
a-7----7----7----7----7----7----7----7----7----7----7------7\6----6/8--|
e----------------------------------------------------------------------|

g---9----9----9----9----9----9----9----9\8----8/9-----|
d-----------------------------------------------------|
a-7----7----7----7----7----7----7------7\6----6/8-----|
e-----------------------------------------------------|

g---9----9----9----9----9----9----9----9\8----8/9-----|
d-----------------------------------------------------|
a-7----7----7----7----7----7----7------7\6----6/8-----|
e-----------------------------------------------------|

g---9----9----9----9--|
d---------------------|
a-7----7----7----7----|
e---------------------|

"Pretty hairdos"

g-----------------------------------|
d-----------------------------------|
a7-7-7-7-7-7-7-7-7-7-7-7-7-7-7-7-7--|
e-----------------------------------|

"Take it down"
g---9----9----9----9----9----9----9----9----9----9----9----9\8----8/9--|
d----------------------------------------------------------------------|
a-7----7----7----7----7----7----7----7----7----7----7------7\6----6/8--|
e----------------------------------------------------------------------|

g---9----9----9----9----9----9----9----9\8----8/9-----|
d-----------------------------------------------------|
a-7----7----7----7----7----7----7------7\6----6/8-----|
e-----------------------------------------------------|

g---9----9----9----9----9----9----9----9\8----8/9-----|
d-----------------------------------------------------|
a-7----7----7----7----7----7----7------7\6----6/8-----|
e-----------------------------------------------------|

g---9----9----9----9--|
d---------------------|
a-7----7----7----7----|
e---------------------|


"All of london sing"

g-----------------------------------|
d-----------------------------------|
a7-7-7-7-7-7-7-7-7-7-7-7-7-7-7-7-7--|
e-----------------------------------|

And the slides starting at 3.10 that everybody is missing!...

g-----------------------------------|
d--6/11--9-----------7/16--14-------|
a-----------------------------------|
e-----------------------------------|

And there you go! please rate! any fan/hate mail to pacman_133@hotmail.com
Suggest correction
Creating personal tab
Creating personal tab
You can edit any tab online and save it as your Personal.

You can edit, replace or remove any tab part or add personal notes – all changes will be seen only by you.

Personal tabs can be accessed anytime from any device, even offline.
Learn more »
comments
print report bad tab
4 comments total. Showing first comments.
0 reply
aaciseric 436 Aug 16, 2008 04:22 AM

Seems like the best version so far.

0 reply
Thunderbird_Fan 83 Jul 20, 2009 11:23 PM

its prob the best version but no where near right

somewhere bass goes to eith notes.

0 reply
Tragically_Hip 10 Jun 20, 2010 06:12 PM

I agree. Best so far but is missing a lot of bass parts. I figure it's only about 75% right.

guest
You may want to rate the tab now too:
select rating
Wanna post a correction for this tab? Suggest correction