Oops, an error
Loading. Please wait.

Find Me Bass Tab

version 1
version 1

Whole song

  • Could be extra notes includes to make the bass line more fun to play.
334 views 30 this week
no commentswrite comment
1 2 3 4 5
x 4
add to favorites
launch autoscroll
font size
0
reset
guitar tuner
Autoscroll
slow
fast
+/-
esc
set tempo
stop
Help us to improve Ultimate-Guitar.com Take our survey!
×
Author
Difficulty
novice
--------------------------------------------------------------------------
                            Artist - Kings Of Leon 
                          *************************
                                Song - Find Me 
                               ****************
                             Album - Walls (2016)
                            **********************
                             Tabbed By - Ayreon77
                            **********************
--------------------------------------------------------------------------
Tuning = Standard             


INTRO
******
00:20
G|---s-----------------|----------------|----------------|----------------|
D|-11\-----------------|----------------|----------------|----------------|
A|------4-4-4----4-4-4-|-2-2-2----2-2-2-|-4-4-4----4-4-4-|-2-2-2----2-2-2-|
E|---------------------|----------------|----------------|----------------|


G|----------------------------|----------------------------|
D|----------------------------|----------------------------|
A|-0-0-0--0-0-0--0-0-0--0-0-0-|-4-4-4--4-4-4--4-4-4--4-4-4-|
E|----------------------------|----------------------------|


G|----------------------------|----------------------------|
D|----------------------------|----------------------------|
A|-2-2-2--2-2-2--2-2-2--2-2-2-|-0-2-2--2-2-2--2-2-2--2-2-2-|
E|----------------------------|----------------------------|


--------------------------
00:44
VERSE 1
********
G|----------------|----------------|----------------|
D|----------------|----------------|----------------|
A|-0-0-0----0-0-0-|-4-4-4----4-4-4-|-2-2-2----2-2-2-|
E|----------------|----------------|----------------|


G|----------------|----------------|----------------|
D|----------------|----------------|----------------|
A|-0-0-0----0-0-0-|-4-4-4----4-4-4-|-2-2-2----2-2-2-|
E|----------------|----------------|----------------|

01:02
G|----------------------------|----------------------------|
D|----------------------------|----------------------------|
A|-0-0-0--0-0-0--0-0-0--0-0-0-|-4-4-4--4-4-4--4-4-4--4-4-4-|
E|----------------------------|----------------------------|


G|----------------------------|-------------------------|
D|----------------------------|-----------------------s-|
A|-2-2-2--2-2-2--2-2-2--2-2-2-|-0-2-2--2-2-2--2-2-2--2\-|
E|----------------------------|-------------------------|


--------------------------
01:14
CHORUS
*******
G|------------------------------------------------------|
D|------------------------------------------------------|
A|-------------0-0-0--4-4-4--2-2-2--2-2-2--2-2-2--2-2-2-|
E|-0-0--2-2-2-------------------------------------------|X4

01:38
G|-------------|-------------|-------------|---------------|
D|--s-s--------|--s-s--------|--s-s--------|--s-s--------s-|
A|-4\7/4---4-4-|-4\7/4---4-4-|-4\7/4---4-4-|-4\7/4---4-4-\-|
E|-------7-----|-------7-----|-------7-----|-------7-------|


--------------------------
01:44
VERSE 2
********
G|----------------|----------------|----------------|
D|----------------|----------------|----------------|
A|-0-0-0----0-0-0-|-4-4-4----4-4-4-|-2-2-2----2-2-2-|
E|----------------|----------------|----------------|


G|----------------|----------------|----------------|
D|----------------|----------------|----------------|
A|-0-0-0----0-0-0-|-4-4-4----4-4-4-|-2-2-2----2-2-2-|
E|----------------|----------------|----------------|

02:02
G|----------------------------|----------------------------|
D|----------------------------|----------------------------|
A|-0-0-0--0-0-0--0-0-0--0-0-0-|-4-4-4--4-4-4--4-4-4--4-4-4-|
E|----------------------------|----------------------------|


G|----------------------------|-------------------------|
D|----------------------------|-----------------------s-|
A|-2-2-2--2-2-2--2-2-2--2-2-2-|-0-2-2--2-2-2--2-2-2--2\-|
E|----------------------------|-------------------------|


--------------------------
02:14
CHORUS
*******
G|------------------------------------------------------|
D|------------------------------------------------------|
A|-------------0-0-0--4-4-4--2-2-2--2-2-2--2-2-2--2-2-2-|
E|-0-0--2-2-2-------------------------------------------|X4

02:37
G|-------------|-------------|-------------|---------------|
D|--s-s--------|--s-s--------|--s-s--------|--s-s--------s-|
A|-4\7/4---4-4-|-4\7/4---4-4-|-4\7/4---4-4-|-4\7/4---4-4-\-|
E|-------7-----|-------7-----|-------7-----|-------7-------|


--------------------------
02:43
SOLO
*****
G|-------------------------|------------------------|--------------------------|
D|-------------------------|------------------------|------------------------s-|
A|-----------------------s-|-4--4--4--4--4--4--4--4-|-2--2--2--2--2--2--2--2-\-|
E|-5--5--5--5--5--5--5--5\-|------------------------|--------------------------|X2


--------------------------
03:01
VERSE 3
********
G|-------------------------|------------------------|------------------------|
D|-------------------------|------------------------|------------------------|
A|-----------------------s-|-4--4--4--4--4--4--4--4-|-2--2--2--2--2--2--2--2-|
E|-5--5--5--5--5--5--5--5\-|------------------------|------------------------|


G|-----------------------------------|
D|---------------------------------s-|
A|-2-2-2-2-2-2-2-2-2-2-2-2-2-2-2-2-\-|
E|-----------------------------------|


--------------------------
03:16
CHORUS ---Come in here ------|
*******                      |
G|------------------------------------------------------|
D|------------------------------------------------------|
A|-------------0-0-0--4-4-4--2-2-2--2-2-2--2-2-2--2-2-2-|
E|-0-0--2-2-2-------------------------------------------|X7

Last one Do this
G|--------------------------|
D|--------------------------|
A|------------0--0--4--4--2-|
E|-0--0--2--2---------------|



ENJOY...............
Suggest correction
comments
print report bad tab
guest
You may want to rate the tab now too:
select rating
Wanna post a correction for this tab? Suggest correction