Oops, an error
Loading. Please wait.

Find Me Tab

2,683 views 411 this week
1 commentread comment
1 2 3 4 5
x 7
add to favorites
launch autoscroll
font size
0
reset
how to read this tab
guitar tuner
Autoscroll
slow
fast
+/-
esc
set tempo
stop
Help us to improve Ultimate-Guitar.com Take our survey!
×
Author
Difficulty
Tuning
intermediate
E A D G B E
[Intro - Matt]
e|-----4---------4-----4-------------|
B|-------5---7-----------5---7---5---|
G|---6-----6---6---6-6-----6---6---6-|
D|-----------------------------------|
A|-----------------------------------|
E|-----------------------------------|

e|-----2---------2-----2-------------|
B|-------4---5-----------4---5---4---|
G|---4-----4---4---4-4-----4---4---4-|
D|-----------------------------------|
A|-----------------------------------|
E|-----------------------------------|   Repeat - note occasional change of picking on B chord

 [Intro - Caleb] - Start after 1 barr of Matt intro
e|---4-4-4-----4-4-4-----------------------|
B|---5-5-5-----5-5-5----7-7-7----7-7-7-----|
G|---6-6-6-----6-6-6----8-8-8----8-8-8-----|
D|---6-6-6-----6-6-6----9-9-9----9-9-9-----|
A|---4-4-4-----4-4-4----9-9-9----9-9-9-----|
E|----------------------7-7-7----7-7-7-----| x 3

e|-----------------4-4-4-------------------|
B|------5-5-5------5-5-5------7-7-7--------|
G|------6-6-6------6-6-6------8-8-8--------|
D|------7-7-7--x4--6-6-6--x4--9-9-9--x8----|
A|------7-7-7------4-4-4------9-9-9--------|
E|------5-5-5-----------------7-7-7--------| x 4


 [Verse - Caleb]
e|---------------4------------------|
B|------5--------5--------7---------|
G|------6--------6--------8---------|
D|------7--------6--------9---------|
A|------7--------4--------9---------|
E|------5-----------------7---------| x 2

e|-----------------4-4-4-------------------|
B|------5-5-5------5-5-5------7-7-7--------|
G|------6-6-6------6-6-6------8-8-8--------|   
D|------7-7-7--x4--6-6-6--x4--9-9-9--x8----|
A|------7-7-7------4-4-4------9-9-9--------|
E|------5-5-5-----------------7-7-7--------| 

 [Verse - Matt] last Barr only
e|------0-0-0------4-4-4------3-2-2--------|
B|------2-2-2------5-5-5------4-4-4--------|
G|------2-2-2------6-6-6------4-4-4--------|
D|------2-2-2--x4--6-6-6--x4--4-4-4--x8----|
A|------0-0-0------4-4-4------2-2-2--------|
E|-----------------------------------------|


[Chorus - Matt]
e|-----4---------4-----4-------------|
B|-------5---7-----------5---7---5---|
G|---6-----6---6---6-6-----6---6---6-|
D|-----------------------------------|
A|-----------------------------------|
E|-----------------------------------|

e|-----2---------2-----2-------------|
B|-------4---5-----------4---5---4---|
G|---4-----4---4---4-4-----4---4---4-|
D|-----------------------------------|
A|-----------------------------------|
E|-----------------------------------|   Repeat


[Chorus - Caleb]
e|-----------------------------|
B|---0----2----4----9-----7----|
G|---1----3----6----9-----8----|
D|---2----4----7----11----9----|
A|---2----4----7----11----9-x4-|
E|---0----2----5----9-----7----| x 4




Suggest correction
comments
print report bad tab
1 comment total.
0 reply
KDL2000 11 Nov 04, 2016 02:09 PM

Could you do the different variations?

guest
You may want to rate the tab now too:
select rating
Wanna post a correction for this tab? Suggest correction