Oops, an error
Loading. Please wait.

Find Me Bass

version 2
version 2

Whole song

  • Could be extra notes includes to make the bass line more fun to play.
463 views 9 this week
no commentswrite comment
1 2 3 4 5
3 more votes to show rating
add to favorites
launch autoscroll
font size
0
reset
guitar tuner
×
Best way to learn
"Find Me"
Autoscroll
slow
fast
+/-
esc
set tempo
stop
Author
Difficulty
novice
About this tab version
Could be extra notes includes to make the bass line more fun to play. Was this info helpful? Yes No
[Intro]

G|-------------------------------------|
D|-------------------------------------|  repeat til guitar picks up
A|---------2-4-4---4-2-2---------------|   
E|----(9\)-----------------------------|


G|--------------------------------------------------------------------------------|
D|--------------------------------------------------------------------------------|
A|---4--4-4----4--4-4----4--4-4----4--4-4-----4--2-2----2--2-2----2--2-2---2--2-2-| repeat till verse
E|--------------------------------------------------------------------------------|


[Verse]


G|---------------------------------------------------------------------------|
D|---------------------------------------------------------------------------|
A|--0--0-0---0--0-0-----0--4-4-----4--4-4-----4--2-2------2--2-2-------------|   repeat til guitar picks up
E|---------------------------------------------------------------------------|


G|-------------------------------------------------------------------------------------------------------|
D|-------------------------------------------------------------------------------------------------------|
A|--0--0-0---0--0-0---0--0-0---0--0-0----0--4-4---4--4-4---4--4-4---4--4-4---4--2-2---2--2-2---2--2-2----|
E|-------------------------------------------------------------------------------------------------------|

G|---------------------------------------------------------------------------|
D|---------------------------------------------------------------------------|
A|--2--2-2---2--2-2---2--2-2----2--2-2---2--2-2------------------------------|
E|---------------------------------------------------------------------------|

[Chorus]

G|---------------------------------------------------------------------------|
D|---------------------------------------------------------------------------|
A|----------------------4-4---2--2-2---2--2-2---2--2-2---2--2-2--------------|
E|---0-0---2-2---5-5---------------------------------------------------------|

riff at the end of chorus
G|---------------------------------------------------------------------------|
D|-------2-------------------------------------------------------------------|
A|----4-----4--2--4--4-------------------------------------------------------|
E|---------------------------------------------------------------------------|

[Bridge]


G|---------------------------------------------------------------------------|
D|---------------------------------------------------------------------------|
A|--0-0-0-0-0-0-0-0-4-4-4-4-4-4-4-4-2-2-2-2-2-2-2-2--------------------------| repeat till breakdown/pause
E|---------------------------------------------------------------------------|

[Outro - basically the chorus]


G|---------------------------------------------------------------------------|
D|---------------------------------------------------------------------------|
A|----------------------4-4---2--2-2---2--2-2---2--2-2---2--2-2--------------| repeat till end of the song
E|---0-0---2-2---5-5---------------------------------------------------------|


************************************
 
| \   Slide down 

************************************
Suggest correction
Give kudos to tab author, rate the tab!
1 2 3 4 5
comments
print report bad tab
guest
You may want to rate the tab now too:
select rating
Wanna post a correction for this tab? Suggest correction