Oops, an error
Loading. Please wait.

Four Kicks bass

version 3
version 3

Whole song

Interactive

4,428 views 1 this week
3 commentsread comments
1 2 3 4 5
x 7
add to favorites
×
Save as Personal and add changes to this tab that will be seen only by you. Learn more ›
×
You can save this tab as Personal to edit and correct it or add notes. All changes will be seen only by you. Learn more »
launch autoscroll
font size
0
reset
guitar tuner
edit
Autoscroll
slow
fast
+/-
esc
set tempo
stop
Author
Difficulty
I'm 99% sure this tab is 100% correct, yeah. Anyway, this is how I play it in my band. OWN IT.

b - Bend
/ - slide
~ - let ring
h - hammer

Intro / Verse

------------------------------------------------------------------|
------------------------------------------------------------------|
-------------------------------4h5-5-5-4h5-5-5--7-----------------|
-0-3b-0-3b-0-3b-0-3b-0-3b-0-3b------------------------------------|

-------------------------------------------------------------------|
-------------------------------------------------------------------|
-------------------------5~----------------------------------------|
-9/-0-3b-0-3b-0-3b-0-3b--------------------------------------------|

------------------------------------------------------------------|
------------------------------------------------------------------|
---------------------7--------------------------------------------|
-0-3b-0-3b-0-3b-0-3b----------------------------------------------|

------------------------------------------------------------------|
------------------------------------------------------------------|
-------------------------5~---------------------------------------|
-9/-0-3b-0-3b-0-3b-0-3b-------------------------------------------|

Pre Chorus / Chorus
------------------------------------------------------------------|
-------------------------------15~-----------15~------------------|
---------------------15~-15/17-----15~-15/17----------------------|
-0-3b-0-3b-0-3b-0-3b----------------------------------------------|

Post Chorus

------------------------------------------------------------------|
------------------------------------------------------------------|
-------------------------------4h5-5-5-4h5-5-5--------------------|
-0-3b-0-3b-0-3b-0-3b-0-3b-0-3b------------------------------------|

------------------------------------------------------------------|
------------------------------------------------------------------|
-------------------------------4h5-5-5-4h5-5-5--7-----------------|
-0-3b-0-3b-0-3b-0-3b-0-3b-0-3b------------------------------------|

Verse
Chorus
Solo (repeat as needed)

------------------------------------------------------------------|
------------------------------------------------------------------|
-------------------------------4h5-5-5-4h5-5-5--------------------|
-0-3b-0-3b-0-3b-0-3b-0-3b-0-3b------------------------------------|

End On Chorus
Booyah

            
            
Suggest correction
Creating personal tab
Creating personal tab
You can edit any tab online and save it as your Personal.

You can edit, replace or remove any tab part or add personal notes – all changes will be seen only by you.

Personal tabs can be accessed anytime from any device, even offline.
Learn more »
comments
print report bad tab
3 comments total.
-1 reply
antipop 110 Mar 22, 2007 08:56 AM

The other tab is way better, but good attempt amigo. Peace.

0 reply
kruutje 93 Jan 12, 2009 07:18 AM

this is the best tab here, amigo.. except the pre chorus part, but its OK.

+2 reply
Saf1 225 Feb 19, 2009 05:16 AM

You've tabbed some of the chorus a Fifth too high, also there are three notes in the fill before the next root. It should go like:

Pre Chorus / Chorus
----------------------------------------------------------------|
------------------------------15-----------------15-------------|
-------------------------15/17----13~-------15/17----13~\*------|
0-3b-0-3b-0-3b-0-3b--13~----------------13~---------------------|

*This is a very quick slide right at the end of the chorus, just before it goes back to verse.

Sweet tab otherwise!

guest
You may want to rate the tab now too:
select rating
Wanna post a correction for this tab? Suggest correction