Oops, an error
Loading. Please wait.

Frontier City tab

version 4
version 4

Whole song

4,932 views 3 this week
1 commentread comment
1 2 3 4 5
x 5
add to favorites
×
Save as Personal and add changes to this tab that will be seen only by you. Learn more ›
×
You can save this tab as Personal to edit and correct it or add notes. All changes will be seen only by you. Learn more »
launch autoscroll
font size
0
reset
how to read this tab
guitar tuner
edit
Autoscroll
slow
fast
+/-
esc
set tempo
stop
Author
Difficulty
Frontier City - Kings of Leon

I took part of the work from the previous versions and i change them as i think it's rigth.
hope u enjoy it.

 h - hammer on
 P - hammer off
 / - slide up
 \ - slide down
 ^ - bend
 * - bended play
 v - unbend
 ~ - hold

Frontier City - Kings of Leon

(Intro - Lead)
|------------------------------------------------------------------|
|--14-14-14-14-14-14-14-14-14h15p14-12\7-10-7/14h15p14-12-14-12~\--|
|----------------------------------- ------------------------------|
|------------------------------------------------------------------|   
|------------------------------------------------------------------|
|------------------------------------------------------------------|

(Intro - Rhythm) 
    Bm       F#m           D           A        Bm       F#m          D
|---------------------------------------------------------------------------|
|---------------------------------------------------------------------------|
|---------------------------------------------------------------------------|
|---4-4-4-4--11-11-11-11--12-12-12-12--7-7-7-7--4-4-4-4--11-11-11-11--12~---|
|---2-2-2-2--11-11-11-11--12-12-12-12--7-7-7-7--2-2-2-2--11-11-11-11--12~---|
|---2-2-2-2--9--9--9--9---10-10-10-10--5-5-5-5--2-2-2-2--9--9--9--9---10~---|



(Verse - Riff)
                                   x2                                    x2    
|----------------------------------|----9---------9----------------------| 
|----10--------10------------------|---10--------10----------------------| 
|---9---------9--------------------|--11p---9---9h11----11---11-11-11----|
|--11p---9---9h11----11---11-11-11-|--0-----0---0-------0----0--0--0-----|
|--0-----0---0-------0----0--0--0--|-------------------------------------|
|----------------------------------|-------------------------------------|



 A   D

Verse #1
A
Find yourself a new frontier
D
Cause life is going, going gone
A
Fly yourself away from here into the clear
D
Before it's going, going, gone


(Bridge)
|------------------------------------------------|
|------------------------------------------------|
|-------------------------7h9--7--6---\2 -------|
|--7--7h9--9--7-9-11--9--7-----------------------|
|------------------------------------------------|
|------------------------------------------------|


Verse #2
A
Say it loud and in the light
D
For it's going, going gone
A
Shake the hands, the hands that pick, pick the fight
D
Cause life is going, going gone


(Chorus)  
    Bm       F#m           D           A        x3  Bm       F#m          D
|-----------------------------------------------|-------------------------------|
|-----------------------------------------------|-------------------------------|
|-----------------------------------------------|-------------------------------|
|---4-4-4-4--11-11-11-11--12-12-12-12--7-7-7-7--|---4-4-4-4--11-11-11-11--12~---|
|---2-2-2-2--11-11-11-11--12-12-12-12--7-7-7-7--|---2-2-2-2--11-11-11-11--12~---|
|---2-2-2-2--9--9--9--9---10-10-10-10--5-5-5-5--|---2-2-2-2--9--9--9--9---10~---|

Chorus
Bm        F#m          D       A
Yes I'll find you and cut you down
Am        Em           D       A
Friends and neighbours, sleepy town
Bm     F#m      D          A
If you wake up before the blow
Bm       F#m
Pick your face up
D~
We come, we go, We live until we live no more


Verse#3
A
Travel with the dead black eye
D
Before it's come and come and gone
A
Cradles and rocking chairs, beneath the light
D
Before it's come and come and gone


Chorus
Bm        F#m          D       A
Yes I'll find you and cut you down
Bm          F#m         D       A
Friends and neighbours, sleepy town
Bm        F#m         D     A
If you wake up before the blow
Bm       F#m        D
Pick your face up

             A 
We come, and go
              Bm  F#m  D
We come and go,(Pre Solo) go  
            A        
We come and go, go   

Bm F#m D A x3 Bm F#m D~ 
(solo)


(Pre Solo)
                                                                     x2
|------------------------------------12-----------------12-----------|
|------------------------------12h14p12h14-12-14--12h14p12h14-12-14--|
|--14h16-14----14--14h16-14------------------------------------------|
|-----------16--------------16---------------------------------------|
|--------------------------------------------------------------------|
|--------------------------------------------------------------------|

(Solo)

|------------------------------------------------------------------------------------------------|
|------------------------------------------------------------------------------------------------|
|--14h16---14h16---14h16---14h16---14h16-14-14h16^-*v-14-16^-*-*-*-*-*-*-*-16-14----14-16-14-16--|
|--------------------------------------------------------------------------------16--------------|
|------------------------------------------------------------------------------------------------|
|------------------------------------------------------------------------------------------------|

|-----------------------------------------------------------------------------|
|-14-17-14-17-18-18^-v--18^-*v-18^v14-12-10-12^-v12-10---10---10---10---------|
|------------------------------------------------------9----9----9----9/11~ --|
|-----------------------------------------------------------------------------|
|-----------------------------------------------------------------------------|
|-----------------------------------------------------------------------------|



This song ROCKS!

            
            
Suggest correction
Creating personal tab
Creating personal tab
You can edit any tab online and save it as your Personal.

You can edit, replace or remove any tab part or add personal notes – all changes will be seen only by you.

Personal tabs can be accessed anytime from any device, even offline.
Learn more »
comments
print report bad tab
1 comment total.
+1 reply
jamesmckee92 426 Apr 30, 2010 10:58 AM

great tab, closest i have found to the actually song, good work man.
ill be waitin on that solo haha

guest
You may want to rate the tab now too:
select rating
Wanna post a correction for this tab? Suggest correction