Oops, an error
Loading. Please wait.

Holy Roller Novocaine bass

version 1
version 1

Whole song

Interactive

10,398 views 3 this week
3 commentsread comments
1 2 3 4 5
x 6
add to favorites
×
Save as Personal and add changes to this tab that will be seen only by you. Learn more ›
×
You can save this tab as Personal to edit and correct it or add notes. All changes will be seen only by you. Learn more »
launch autoscroll
font size
0
reset
guitar tuner
edit
Autoscroll
slow
fast
+/-
esc
set tempo
stop
Author
Difficulty
-------------------------------------------------------------------
Holy Roller Novocaine- Kings of Leon
---------------------------------------------------------------------

Tabbed By : ProperBo

Tuning: EADG

Intro/Verse/Chorus/1st Solo:
G|--------------------------------------------------------|
D|--------------------------------------------------------|
A|--------------------------------------------------------|
E|---0---0-3------0---0-6-5------0---0-3------0---0-6-5---|

Pre chorus (I’m gonna get her back..)
G|---------------------------------------------------------|
D|---------------------------------------------------------|
A|---3-3-3-3-3-3-3-3--1-1-1-1-1-1-1-1--3-3-3-3-3-3-3-3--1--|
E|---------------------------------------------------------|

2nd Solo:
G|--------------------------------------------------------------------|
D|--------------------------------------------------------------------|
A|--------------------------------------------------------------------|
E|55555555555555-88888888888888-55555555555555-8888888-10101010101010-|

            
            
Suggest correction
Creating personal tab
Creating personal tab
You can edit any tab online and save it as your Personal.

You can edit, replace or remove any tab part or add personal notes – all changes will be seen only by you.

Personal tabs can be accessed anytime from any device, even offline.
Learn more »
comments
print report bad tab
3 comments total.
+1 reply
eddienolan89 75 Aug 28, 2007 12:34 PM

ya this tab is grand,but 1 ting wrong is durin d chorus the main riff is played a octave higher!good tab anyway!

+1 reply
eddienolan89 75 Aug 28, 2007 12:41 PM

its played like this durin d chorus
G|--------------------------|
D|---------5------------8-7-|
A|---7---7--------7---7-----|
E|--------------------------|

0 reply
Thunderbird_Fan 83 Dec 14, 2009 04:49 AM

yeah i agree wit eddienolan89 d chorus is played an 8va higher

guest
You may want to rate the tab now too:
select rating
Wanna post a correction for this tab? Suggest correction