Oops, an error
Loading. Please wait.

I Want You Bass Tab

version 2
version 2

Whole song

Interactive

907 views 1 this week
no commentswrite comment
1 2 3 4 5
please rate
add to favorites
launch autoscroll
font size
0
reset
guitar tuner
Autoscroll
slow
fast
+/-
esc
set tempo
stop
Help us to improve Ultimate-Guitar.com Take our survey!
×
Difficulty
intermediate
Jared Followill, uses a main riff and an alternate one. They switch at certain 
times so i will record that in my tab.

Main riff:

G |---------------------------------------|
D |---------------------------------------|
A |---------2-2-2-2-2--3-3-3--------------|
E |-3-3-3-----------------------2-2-2-2-2-|

Repeat until Approximately 2:41
Verse starts

As Caleb sings.
Home boy so proud..
Alternate:
G |------------------------------7/9------|
D |---------------------------------------|
A |---------2-2-2-2-2--3-3-3--3/5/7-------|
E |-3-3-3---------------------------------|(x1)
Back to main.
G |---------------------------------------|
D |---------------------------------------|
A |---------2-2-2-2-2--3-3-3--------------|
E |-3-3-3-----------------------2-2-2-2-2-|(x3)
Alternate
G |------------------------------7/9------|
D |---------------------------------------|
A |---------2-2-2-2-2--3-3-3--3/5/7-------|
E |-3-3-3---------------------------------|(x1)
Main.
G |---------------------------------------|
D |---------------------------------------|
A |---------2-2-2-2-2--3-3-3--------------|
E |-3-3-3-----------------------2-2-2-2-2-|(x2)

Then jared plays the main riff once then the alternate after he does that twice (x2)

then back to the main one (x2)

then they switch back and fourth again through the chorus,

till after caleb's done singing then the main riff goes (x2)
then switch again until the end to where it ends with.

G |---|
D |---|
A |---|
E |-3-|
Suggest correction
Give kudos to tab author, rate the tab!
1 2 3 4 5
comments
print report bad tab
guest
You may want to rate the tab now too:
select rating
Wanna post a correction for this tab? Suggest correction