Oops, an error
Loading. Please wait.

Immortals Bass Tab

version 2
version 2

Whole song

Interactive

16,561 views 21 this week
2 commentsread comments
1 2 3 4 5
accurate
x 6
add to favorites
launch autoscroll
font size
0
reset
guitar tuner
Autoscroll
slow
fast
+/-
esc
set tempo
stop
Help us to improve Ultimate-Guitar.com Take our survey!
×
Author
Difficulty
savy7 133
intermediate
-------------------------------------------------------------------------------
			     IMMORTALS - Kings of Leon
-------------------------------------------------------------------------------

Tabbed By : savy7
e-mail: N/A

Tuning: Standard

Verse:
G|---------------------------------------------------------------------------|
D|---------------------------------------------------------------------------|
A|-----11-11-7-7-/14-14------------------------------------------------------|
E|-9-9-----------------------------------------------------------------------|

Chorus:
G|---------------------------------------------------------------------------|
D|---------------------------------------------------------------------------|
A|---------------------------------------------------------------------------|
E|-0-0-0-0-0-0-0-0-0-0-0-0-0-0-0-0-4-4-4-4-4-4-4-4-5-5-5-5-5-5-5-5-----------|

The above line only happens once at the start of each chorus, then it switches over to 
one below.

G|---16-18---14-16---13-14---11-13---9-11------------------------------------|
D|---------------------------------------------------------------------------|
A|---------------------------------------------------------------------------|
E|-0-------0-------0-------0-------0------0-4-4-4-4-4-4-4-4-5-5-5-5-5-5-5-5--|

This is all just 8th notes, so the timing is easy if you keep a consistent pattern.

Post-Chorus
G|---------------------------------------------------------------------------|
D|------------------------------------11---9---------------------------------|
A|------------------11-11-----11.11------------------------------------------|
E|-9-9----999-/12-9-----------------9----7-----------------------------------|

The dot is there to differentiate between 4 1's and 2 11's, because it is actually two 
notes leading into the
next measure.

| /  slide up
| \  slide down
| h  hammer-on
| p  pull-off
| ~  vibrato
| +  harmonic
| x  Mute note
===============================================================================
Suggest correction
What's this?
You can suggest a correction to this tab. Community and Mods will review your correction and vote to approve or reject it.
comments
print report bad tab
2 comments total.
+1 reply
benblakeway14 55 wrote on October 23 2010, 05:59 am

Good tab man. Only thing I'd change is one note in "Post Chorus".

It goes:


G|-----------------------------------------------
D|-----------------------------------7----9------
A|--------------7----11-11---11.11---------------
E|-9-9----9-7-9---9----------------9----7--------


And just before the solo at 2:32 there's a slight variation going into it at 2:30


G|-----------------------------------------------
D|-----------------------------------------------
A|--------------7---9/11-9-7-6-4-2---------------
E|-9-9----9-7-9---9------------------------------


I hope this came out right!

0 reply
savy7 133 wrote on November 3 2010, 04:29 pm

Nice catch. I didn't even realize that little lead-in to the hail-mary chorus.

Also... I listened back, and I think I hear something slightly different than what you have tabbed out. You're right, that I did forget the 7th fret on the E string in there, but I still hear that slide up to the 12th fret, and I hear it without going back to the 9th fret.

Hopefully when this tab gets updated with updates (including your correction) you'll see what I mean.

guest
You may want to rate the tab now too:
select rating
Please do not post tabs as comments. Select "correction" instead!