Oops, an error
Loading. Please wait.

Joes Head Tab

version 1
version 1

Whole song

Interactive

22,250 views 6 this week
7 commentsread comments
1 2 3 4 5
accurate
x 9
add to favorites
launch autoscroll
font size
0
reset
how to read this tab
guitar tuner
Tab Pro tools
  • play this tab
  • loop segment
  • change instrument
  • show fretboard
  • metronome
×
Best way to learn
"Joes Head"
Autoscroll
slow
fast
+/-
esc
set tempo
stop
Contributor
Artist: Kings Of Leon
Song: Joes Head
Album: Youth Young Manhood
Tab by: Mwoit 
Email: mwoit@lycos.com

Intro:

Guitar 1:

e|-----------------------------|      Repeat several times
B|---0-0-0-2-2-2-4-4-4-2-2-2---|  
G|---1-1-1-2-2-2-4-4-4-2-2-2---|
D|---2-2-2-4-4-4-6-6-6-4-4-4---|
A|---2-2-2-4-4-4-6-6-6-4-4-4---|
E|-----------------------------|

Guitar 2:


e|----------5p4-4---5p4-4---5p4-7-----|  
B|-------------4-------4-------4------|  
G|------------------------------------|
D|------------------------------------|
A|------------------------------------|
E|------------------------------------|

Verse:

Guitar 1:

e|-----------------------------|      Repeat several times
B|---0-0-0-2-2-2-4-4-4-2-2-2---| 
G|---1-1-1-2-2-2-4-4-4-2-2-2---|
D|---2-2-2-4-4-4-6-6-6-4-4-4---|
A|---2-2-2-4-4-4-6-6-6-4-4-4---|
E|-----------------------------|

Bridge:

Guitar 1:

"It's too late for apoligises, there falling at my feet"

e|--------------------------------------------|      
B|----5-----------------------8---------------|
G|----6-----------------------9---------------|
D|----7-----------------------10--------------|
A|----7-----------------------10--------------|
E|--------------------------------------------|

Chorus:

Guitar 1:

E|-----------------------------222--444----------------------|
B|----------0------0----0------222--444----------------------|
G|-----0h1---0h1------1--------222--444----------------------|
D|-----------------------------222--444----------------------|
A|-----------------------------------------------------------|
E|--0--------------------------------------------------------|

E|-----------------------------222---------------------------|
B|----------0------0----0------222---------------------------|
G|------0h1---0h1----1---------222--444----------------------|
D|-----------------------------222--666----------------------|
A|----------------------------------666----------------------|
E|--0--------------------------------------------------------|

E|-----------------------------222--444----------------------|
B|-----------0------0----0-----222--444----------------------|
G|------0h1---0h1----1---------222--444----------------------|
D|-----------------------------222--444----------------------|
A|-----------------------------------------------------------|
E|--0--------------------------------------------------------|

E|-----------------------------222---------------------------|
B|-----------0------0----0-----222---------------------------|
G|------0h1---0h1----1---------222--444--2-------------------|
D|-----------------------------222--666--4-------------------|
A|----------------------------------666--4-------------------|
E|--0--------------------------------------------------------|

Solo:

Guitar 2:

Solo
E|------------------------------------------------------------------------|
B|------------------------------------------------------------------------|
G|--------------4-6-4---------4--9-6----------4-6-4-6-9-8-9-11-9-11-12----|
D|-4-4-4---4-6--------6-4-6-----------6-4-6-------------------------------|
A|-4-4-4------------------------------------------------------------------|
E|-2-2-2------------------------------------------------------------------|


E|---------4-------5--— ---7 -------5------------------------------|
B|------5----5--7----7--9----9--7-----7----------------------------|
G|-----------------------------------------------------------------|     X2
D|-----------------------------------------------------------------|
A|-----------------------------------------------------------------|
E|-----------------------------------------------------------------|

ORDER OF SONG:

Intro
Verse
Bridge
Chorus
Intro
Verse 
Bridge
Chorus
Solo
Chorus
Fin.
comments
print report bad tab
7 comments total. Showing first comments.
0 reply
Gaz_m2k5 wrote on April 25 2006, 02:41 pm

love the chorus riff but the tab is wrong.

0 reply
Gaz_m2k5 wrote on April 25 2006, 02:44 pm

E|-----------0--0-----0-0------222--444----------------------|
B|-----------0--0-----0-0------222--444----------------------|
G|------0h1-------0h1----------222--444----------------------|
D|-----------------------------222--444----------------------|
A|-----------------------------------------------------------|
E|--0--------------------------------------------------------|

I think the 3rd and 4th line of the chorus go a bit more like that.

0 reply
guitarzan23 wrote on January 5 2007, 08:02 am

Doesnt really sound just right when you play along to the song, i think the "di di la di, di di la doo" bit is played in a different position.

I want to post or [tab]
guest
You may want to rate the tab now too:
select rating
Please do not post tabs as comments. Select "correction" instead!