Oops, an error
Loading. Please wait.

King Of The Rodeo Chords

version 1
version 1

Acoustic

Whole song

Interactive

14,445 views 27 this week
no commentswrite comment
1 2 3 4 5
excellent!
x 6
add to favorites
launch autoscroll
font size
0
reset
transpose
0
reset
display chords
guitar tuner
Autoscroll
slow
fast
+/-
esc
set tempo
stop
Help us to improve Ultimate-Guitar.com Take our survey!
×
Author
Capo
2nd fret
Standard Tuning
Capo 2nd

Chords used:
   Em    G     Bm    C
e|-0-----3-----2-----0-|
B|-0-----0-----3-----1-|
G|-0-----0-----4-----0-|
D|-2-----0-----4-----2-|
A|-2-----X-----2-----3-|
E|-0-----3-----------0-|

Background riff:
e|-------------------------------------------------------|
B|-------------------------------------------------------| 6b9 you can
G|-6--6--6--6--6--6--6--6s4s6--6--6--6--6--6--6--6b9-----| either bend
D|-------------------------------------------------------| or slide
A|-------------------------------------------------------|
E|-------------------------------------------------------|

e|-------------------------------------------------------|
B|-------------------------------------------------------|
G|-6--6--6--6--6--6--6--6s4s6--6--6--6s4s6--6--6--6------|
D|-------------------------------------------------------|
A|-------------------------------------------------------|
E|-------------------------------------------------------|

the very first note (nice way to start the song)
A|---------------|
E|-12-slide-down-|

INTRO: Em, G, Em, G (+ background riff)

VERSE

Em                             G
He's so purity, a shaven and a mourner
Em                                         G
and standing on a Pigeon toe, in his dissarray
Em
Straight in the picture pose,
                      G
he's coming around to meet you
Em                                              G
And screaming like a battle cry, its more if i stay

CHORUS

Bm
Me and you're cold, Driving in the snow,
C                                      G
let the good times roll, let the good times roll
Bm                         C
Cowgirl king of the rodeo, let the good times roll,
              G
let the good times roll

BRIGDE: Em, G (+ background riff)

then verse etc

as soon as you get the rhythm this song is very easy
Suggest correction
comments
print report bad tab
guest
You may want to rate the tab now too:
select rating
Please do not post tabs as comments. Select "correction" instead!